Curso de Violão Completo Aprenda Violão sem sair de casa, no horário que desejar.

Ebook Grátis Violão Para você dar os seus primeiros passos no violão.

Pensando em você – Pimentas do reino (aula de violão completa)

Pensando Em Você

Pimentas do Reino

 Pimentas do Reino
Tom: G
(intro) C7M  Cm  G/B  Bbm6  Am7  D  G  C#m7(b5)  C7M  Cm  G/B  Bbm6  Am7  G/B  C9  D4

(dedilhado intro)


C7M
E|--3-3-----3--|
B|--5---5------|
G|--4-----4----|
D|-------------|
A|--3----------|
E|-------------|



Cm G/B
E|---------3-----3----------3-----3-|
B|-----4-----4----------3-----3-----|
G|---0---0-----0------0---0-----0---|
D|----------------------------------|
A|-3----------------2---------------|
E|----------------------------------|



Bbm6 Am7
E|---------3-----3----------3-----3-|
B|-----2-----2----------1-----1-----|
G|---0---0-----0------0---0-----0---|
D|----------------------------------|
A|-1----------------0---------------|
E|----------------------------------|



D G
E|---------2-----3----------3-----3-|
B|-----3-----3----------3-----3-----|
G|---2---2-----2------0---0-----0---|
D|-0--------------------------------|
A|----------------------------------|
E|------------------3---------------|



C#m7(b5) C7M
E|---------3-----3----------3-----3-|
B|-----0-----0----------5-----5-----|
G|---0---0-----0------4---4-----4---|
D|----------------------------------|
A|-4----------------3---------------|
E|----------------------------------|


(repetição)


Bbm6 Am7
E|---------3-----3----------3-----|
B|-----2-----2----------1-----1---|
G|---0---0-----0------0---0-----0-|
D|--------------------------------|
A|-1----------------0-------------|
E|--------------------------------|



Am7 G/B C9
E|--3----3---x---3--------3-----3--|
B|--1----3---x---3----3-----3------|
G|--0----0---x---0--0---0-----0----|
D|-----------x---------------------|
A|--0----2---x---3-----------------|
E|---------------------------------|



D4
E|-------3h2h0-----|
B|-----3-------3---|
G|---2-----------0-|
D|-0---------------|
A|-----------------|
E|-----------------|


(primeira parte)

G D9/F# Em
Estava satisfeito só em ser teu amigo
Bm7 C9 G
Mas o que será que aconteceu comigo?
Am7 D9
Aonde foi que eu errei
G D9/F# Em
Às vezes me pergunto se eu não entendi errado
Bm7 C9 G
Grande amizade com estar apaixonado
Am7 D9
Se for só isso logo vai passar

(dedilhado primeira parte)


G D9/F#
E|---------3-----3------------------|
B|-----3-----3--------------3-----0-|
G|---0---0-----0--------2-----2-----|
D|--------------------0---0-----0---|
A|----------------------------------|
E|-3----------------2---------------|



Em Bm7
E|-----------x-------------------|
B|--------0--x---3------3-----0--|
G|------0----x---2--2-----2------|
D|----2------x---4----4-----0----|
A|-----------x---2---------------|
E|--0----------------------------|



C9 (sem dedo 4) G (com pestana)
E|----------------------------------|
B|--------3-----0---------3---------|
G|-----0----0-----------4-----------|
D|---2---2----0-------5-------5---4-|
A|-3--------------------------------|
E|------------------3-------3---4---|



Am7 (com pestana) D9
E|---------------------------0-----3-|
B|---------5-----0-------3-----3-----|
G|-----5-----5---------2---2-----2---|
D|---5---5-----0-----0---------------|
A|-----------------------------------|
E|-5---------------------------------|


(segunda parte)

C7M Cm
Mas quando toca o telefone será você?
G/B
O que eu estiver fazendo eu paro de fazer
Bbm6
E se fica muito tempo sem me ligar
Am7
Arranjo uma desculpa pra te procurar
G/B C9 D4 D
Que tolo, mas eu não consigo evitar

(dedilhado segunda parte)


C7M
E|---------3-----3----------3-----3-|
B|-----5-----5----------5-----5-----|
G|---4---4-----4------4---4-----4---|
D|----------------------------------|
A|-3----------------3---------------|
E|----------------------------------|



Cm
E|---------3-----3----------3-----3-|
B|-----4-----4----------4-----4-----|
G|---0---0-----0------0---0-----0---|
D|----------------------------------|
A|-3----------------3---------------|
E|----------------------------------|



G/B
E|---------3-----3----------3-----3-|
B|-----3-----3----------3-----3-----|
G|---0---0-----0------0---0-----0---|
D|----------------------------------|
A|-2----------------3---------------|
E|----------------------------------|



Bbm6
E|---------3-----3----------3-----3-|
B|-----2-----2----------2-----2-----|
G|---0---0-----0------0---0-----0---|
D|----------------------------------|
A|-1----------------1---------------|
E|----------------------------------|



Am7 G/B
E|---------3-----3----------3-----3-|
B|-----1-----1----------3-----3-----|
G|---0---0-----0------0---0-----0---|
D|----------------------------------|
A|-0----------------2---------------|
E|----------------------------------|



C9 D4 D
E|--------3--x---3----2--|
B|------3----x---3----3--|
G|----0------x---2----2--|
D|-----------x---0----0--|
A|--0--------x-----------|
E|-----------------------|


(refrão)
C9 D4 D Bm7
Porque eu só vivo pensando em você
E4 E Am7 D4 D G C#m7(b5)
É sem querer, você não sai da minha cabeça mais
C9 D4 D Bm7
E eu só vivo acordado a sonhar
E4 E Am7 D4
Imaginar nós dois às vezes penso ser um sonho impossível
D
Ou uma ilusão terrível
C9 D4 D Bm7
Será? Eu já pedi tanto em oração
E4 E Am7
Que as portas do seu coração
D4 D G C#m7(b5)
Se abrissem pra eu te conquistar
C9 D4 D Bm7
Mas que seja feita a vontade de Deus
E4 E Am7
Se Ele quiser então

Não importa quando onde ou como
Cm7 D7(4/9/13) D7(4/9)
Eu vou ter teu coração

(solo) G D9/F# Em Bm7 C9 Cm7 D7(4/9/13) D7(4/9)


E|------------------------------------------------10----------------------|
B|---------8---8-10--10/12--10~------8-10--10/12------12--10/8--10b11r10~-|
G|-----7-9-----------------------7-9--------------------------------------|
D|-7-9--------------------------------------------------------------------|
A|------------------------------------------------------------------------|
E|------------------------------------------------------------------------|



E|---------------------------------------------10-------10-----10-----10-----10/12-10--|
B|----------------7-8~-10-8-10/12-10-8h10p8-------8-7h8----7h8----7h8----7h8-----------|
G|------9--9/7--9----------------------------9-----------------------------------------|
D|--7/9--------------------------------------------------------------------------------|
A|-------------------------------------------------------------------------------------|
E|-------------------------------------------------------------------------------------|


G D9/F#
Faço tudo pra chamar tua atenção
Em Bm7 C9
Vez em quando eu meto os pés pelas mãos
G
Engulo a seco o ciúme
Am7
Quando outro apaixonado quer
D4 D
Tirar de mim sua atenção
G D9/F# Em
Coração apaixonado é bobo
Bm7
Um sorriso teu e eu me derreto todo
C9 G
O seu charme o seu olhar
Am7 D D9
Sua fala mansa me faz delirar

C7M
Mas quanta coisa aconteceu e foi dita
Cm
Qualquer mínimo detalhe era pista
G/B
Coisas que ficaram para trás
Bbm6
Coisas que você nem lembra mais
C7M
Mas eu guardo tudo aqui no meu peito
Cm
Tanto tempo estudando seu jeito
G/B
Tanto tempo esperando uma chance
Bbm6
Sonhei tanto com esse romance
Am7 G/B C9 D4 D
Que tolo, mas eu não consigo evitar

(repete o refrão)

(final) G D9/F# Em Bm7 C9 Cm7 D7(4/9/13) D7(4/9) G

Receba nossos artigos

*

6 aulas de exercícios de violão

13 aulas de violão iniciante

7 aulas de Violão com Beatles

11 aulas de acordes de violão

7 aulas para evoluir no violão

Sobre nós:

A Primeiros Acordes tem como objetivo ensinar você a aprender a tocar no conforto de sua casa, com aulas, cursos, vídeo-aulas, métodos voltados para o aprendizado online.

Contato

Primeiros Acordes

Email: marcos.dupra@globo.com

Horário: 9:00 ás 18:00 hs

Não temos loja física