Curso de Violão Completo Aprenda Violão sem sair de casa, no horário que desejar.

Ebook Grátis Violão Para você dar os seus primeiros passos no violão.

Otherside – Red hot chili peppres (aulas de violão completa)

Tom: C
(intro)

E|-----------|-----------|
B|---------0-|-----------|
G|-----2-2---|-2-0-------|
D|-2-2-------|-----2-2-0-|
A|-----------|-----------|
E|-----------|-----------|

(parte)
(1) (2) (3) (4)
E|-----------|-----------|-----------|---------|
B|-----------|-----------|-----------|---------|
G|-----------|-2-2-4-2-0-|-----------|---------|
D|-2-2---2---|-----------|-2-2---2---|--0-0-0--|
A|-0-0-0-0---|-----------|-3-3-3-3---|---------|
E|---------3-|-1-1-1-1-1-|---------0-|--3-3-3--|

(variações da intro)

(parte)
(1) (2)
E|-----------||0-0---0-------------|
B|-----------||----------0-0---0---|
G|-----------||--------------------|
D|-0-0---0---||--------------------|
A|-----------||3-3-3-3-------------|
E|-3-3-3-3-3-||--------0-3-3-3-3-3-|


(primeira parte - repetir a intro cantando junto)

How long, how long will I slide?
Separate my side
I don't, don't believe it's bad
Slittin' my throat it's all I ever

(segunda parte)

(na hora de tocar o Em, fazer da seguinte forma)

(1) (2)
|-----3-------|
|-------5-----|
? X ; |-2/4-----4---|
|-------------|
|-------------|
|-------------|


Am Em
I heard your voice through a photograph
Am Em
I thought it up and brought up the past
Am Em
Once you know you can never go back
G A
I've got to take it on the otherside

Am Em
Centuries are what it meant to me
Am Em
A cemetery where I marry the sea
Am Em
Stranger things never change my mind
G A
I've got to take it on the otherside
G A
Take it on the otherside
G
Take it on
A
Take it on

(terceira parte)
Am F C
How long, how long will I slide?
G Am F C
Separate my si...de I don't
G Am F
I don't believe it's ba...d
C
Slittin' my throat
G
It's all I ever

(repete partes 2 e 3)

(quarta parte)

E|--------------------------------------------|
B|--------------------------------------------|
G|-9-9-7/9-9-9-7/9---------9-7/9-12-12-11-9-7-|
D|-------------------2-4-5--------------------|
A|-7-7-5/7-7-7-5/7---0-2-3-7-5/7-10-10-9--7-5-|
E|-----------------3--------------------------|

Turn me on take me for a hard ride
Burn me out leave me on the otherside
I yell and tell it that
It's not my friend
I tear it down I tear it down
And then it's born again

(repete parte 3 até o final)

Receba nossos artigos

*

6 aulas de exercícios de violão

13 aulas de violão iniciante

7 aulas de Violão com Beatles

11 aulas de acordes de violão

7 aulas para evoluir no violão

Sobre nós:

A Primeiros Acordes tem como objetivo ensinar você a aprender a tocar no conforto de sua casa, com aulas, cursos, vídeo-aulas, métodos voltados para o aprendizado online.

Contato

Primeiros Acordes

Email: marcos.dupra@globo.com

Horário: 9:00 ás 18:00 hs

Não temos loja física