Curso de Violão Completo Aprenda Violão sem sair de casa, no horário que desejar.

Ebook Grátis Violão Para você dar os seus primeiros passos no violão.

A Mais Pedida - Raimundos

Tom: C
        
Intro: C5  G5  A5 (3x)
       D5

   C                 Am
E|-3--x--3---5--3--X-0----------------|
B|-5--x--5---5--5--X-1----------------|
G|-5--x--5---5--5--X-2----------------|
D|------------------------------------|
A|------------------------------------|
E|------------------------------------|
   C                 Am
E|-3--x--3---5--3--X-0---0--0-0-0-0---|
B|-5--x--5---5--5--X-1---1--3-1-3-1---|
G|-5--x--5---5--5--X-2---2--2-2-2-2---|
D|------------------------------------|
A|------------------------------------|
E|------------------------------------|
   C                 Am     D5(9)
E|-3--x--3---5--3----0----0-0---0--0--|
B|-5--x--5---5--5----1--3---3---------|
G|-5--x--5---5--5----2------2---------|
D|------------------------------------|
A|------------------------------------|
E|------------------------------------|


C5
  Nesse show não entra menor,

Um homem censurou, tava de mau humor
 F5                D5                  A5
Não tinha dormido bem porque não levantou
 C5
   Pense como ia ser bom

Se nós fizesse um som que ultrapassasse
      F5                          A5
A barreira das am, fm e dos elevador
    G5              C5
Aí sim, dá um selinho
                          D5
E mostra o seio that you saw
              F5                   A5
Quando eu te vi o meu calção se abriu
          D5              G5
Caiu uma lágrima de um olho, que se for dos dois então é namoro

Refrão:
C5                  F5
  Meu cabelo é ruim,  mas meu terno é de linho
C5                       F5                  D5
  Vou ser seu salgadinho,  cê vai gostar de mim
         G5           C5
Se eu tocar no seu radinho
                F5                    C5
Choro até o fim,  só pra rimar com mim
                           F5                  D5
Pois se eu ganhar "din din"  cê vai gostar de mim
         G5           C5  G5  A5 (2x) D5
Se eu tocar no seu radinho

 C5
Por favor, seu locutor,

Ao menos uma vez, melhor se fossem três
 F5                                 ( A5  C5 ) (2x)
Toca o nosso som aí que tu me faz feliz
D5
  Se não tocar eu quebro o seu nariz

Solo 2x: C5  D5  F5  A5  D5  G5

Refrão:
C5                  F5
  Meu cabelo é ruim,  mas meu terno é de linho
C5                       F5                  D5
  Vou ser seu salgadinho,  cê vai gostar de mim
         G5           C5
Se eu tocar no seu radinho
                F5                    C5
Choro até o fim,  só pra rimar com mim
                           F5                  D5
Pois se eu ganhar "din din"  cê vai gostar de mim
         G5           C5  G5  A5 (2x) D5
Se eu tocar no seu radinho

( C5  F5 ) (2x)

      D5         G5           C5  G5  A5 (2x) D5
Só assim preu tocar no seu radinho

Receba nossos artigos

*

6 aulas de exercícios de violão

13 aulas de violão iniciante

7 aulas de Violão com Beatles

11 aulas de acordes de violão

7 aulas para evoluir no violão

Sobre nós:

A Primeiros Acordes tem como objetivo ensinar você a aprender a tocar no conforto de sua casa, com aulas, cursos, vídeo-aulas, métodos voltados para o aprendizado online.

Contato

Primeiros Acordes

Email: marcos.dupra@globo.com

Horário: 9:00 ás 18:00 hs

Não temos loja física