Curso de Violão Completo Aprenda Violão sem sair de casa, no horário que desejar.

Ebook Grátis Violão Para você dar os seus primeiros passos no violão.

Tá se achando – Guilherme e Santiago (aula de violão completa)

Tá se achando – Guilherme e Santiago (aula de violão completa)

Tá Se Achando

Guilherme & Santiago

 Guilherme & Santiago
Tom: D
        
(intro)  D  A/C#  Bm  A

(primeira parte)
   D               A
Parou, passou, se foi sua paixão
        Bm           G
Você tirou, zoou, feriu meu coração
         D              A
Você já sabe, um dia você que riu de mim
         Bm                G
Pode chorar amargamente pedindo pra ser feliz

(refrão)
         D                A
Tá se achando bacana, gostosa, um mulherão
          Bm                  G
Rasga dinheiro, tem gelo dentro do coração
         D                A
Tá se achando bacana, gostosa, um mulherão
           Bm                       G
Pintou saudade, tô sabendo, vai correr pro meu portão

(segunda parte)
    D               A
Correu, se foi, viajou pra não voltar
          Bm             G
Levou de mim o amor, cê sabe magoar
         D              A
Você já sabe, um dia você que riu de mim
         Bm                G
Pode chorar amargamente pedindo pra ser feliz

(refrão)
         D                A
Tá se achando bacana, gostosa, um mulherão
          Bm                  G
Rasga dinheiro, tem gelo dentro do coração
         D                A
Tá se achando bacana, gostosa, um mulherão
           Bm                       G
Pintou saudade, to sabendo, vai correr pro meu portão

(base solo 2x) D A/C# Bm G

(solo)

(1ª parte)

E|-10p7-10p7------10p7-10p7------10p7----------------|
B|-----------10p7-----------10p7------10p7-----------|
G|---------------------------------------------------|
D|---------------------------------------------------|
A|---------------------------------------------------|
E|---------------------------------------------------|


(2ª parte)

E|-12p9-12p9------12p9-12p9------12p9----------------|
B|-----------10-------------10--------10-------------|
G|--------------9--------------9---------9-----------|
D|---------------------------------------------------|
A|---------------------------------------------------|
E|---------------------------------------------------|


(3ª parte)

E|-14p10-14p10-------14p10-14p10-------14p10---------|
B|-------------12----------------12------------------|
G|----------------11----------------11---------------|
D|---------------------------------------------------|
A|---------------------------------------------------|
E|---------------------------------------------------|


(4ª parte)

E|-12/15-15-14---------------------------------------|
B|-------------15~----------15-15----15-17-15--------|
G|-----------------14-14h16-------16-----------------|
D|---------------------------------------------------|
A|---------------------------------------------------|
E|---------------------------------------------------|


(5ª parte)

E|-------14-15-16-17-------------17b19-17b19r17------|
B|-17b19-------------17b19r17-15---------------------|
G|---------------------------------------------------|
D|---------------------------------------------------|
A|---------------------------------------------------|
E|---------------------------------------------------|

E|-15-14-14b15~--------------------------------------|
B|---------------------------------------------------|
G|---------------------------------------------------|
D|---------------------------------------------------|
A|---------------------------------------------------|
E|---------------------------------------------------|


(repete tudo)

Receba nossos artigos

*

6 aulas de exercícios de violão

13 aulas de violão iniciante

7 aulas de Violão com Beatles

11 aulas de acordes de violão

7 aulas para evoluir no violão

Sobre nós:

A Primeiros Acordes tem como objetivo ensinar você a aprender a tocar no conforto de sua casa, com aulas, cursos, vídeo-aulas, métodos voltados para o aprendizado online.

Contato

Primeiros Acordes

Email: marcos.dupra@globo.com

Horário: 9:00 ás 18:00 hs

Não temos loja física