Curso de Violão Completo Aprenda Violão sem sair de casa, no horário que desejar.

Ebook Grátis Violão Para você dar os seus primeiros passos no violão.

Let it be – The Beatles (aula de violão completa)

Let it be – The Beatles (aula de violão completa)

Let It Be

The Beatles

 The Beatles
Tom: C
        
(intro)

   C       G     Am        F   F6  C
E|---------------------------------0---0----|
B|-1---1---0---0---1---1---1---3---1---1----|
G|-0---0---0---0---2---2---2---2-----0------|
D|---2---2---0---0---2-------3---3----------|
A|-3---3-----------0---0-----------3---3----|
E|---------3---3---------3-1---1------------|



   G       F   Em/F F6   C
E|---------1---0----------------------------|
B|-3---3---1---0----3----1---1--------------|
G|-4---4---2---0----2----0---0--------------|
D|---5---5----------3----2-2---2------------|
A|-----------------------3---3--------------|
E|-3---3---1-1------------------------------|


        C              G
When I find myself in times of trouble
 Am          F           F6
Mother Mary comes to me
  C                G              F Em/F F6 C
Speaking words of wisdom, let it be

    C              G
And in my hour of darkness
         Am                F           F6
She is standing right in front of me
  C                G              F Em/F F6 C
Speaking words of wisdom, let it be

          Am         Am/G       F          C
Let it   be, let it be, let it be, let it be
                  G              F Em/F F6 C
Whisper words of wisdom, let it be.

      C              G
And when the broken-hearted people
 Am            F           F6
Living in the world agree
  C                  G           F Em/F F6 C
There will be an answer, let it be

      C                    G
For though they may be parted
           Am                  F           F6
There is still a chance that they will see
  C              G               F Em/F F6 C
There will be an answer, let it be

          Am         Am/G       F          C
Let it   be, let it be, let it be, let it be

                     G           F Em/F F6 C
There will be an answer, let it be

          Am         Am/G       F          C
Let it   be, let it be, let it be, let it be

                  G              F Em/F F6 C
Whisper words of wisdom, let it be.

(instrumental 2x) F Em/F F6 C Bb Am G F C/E

(solo 2x) C G Am F C G F Em/F F6 C

(parte 1)              (parte 2)

       C           G        Am          F
E|---------------------|---------------------|
B|---------------------|---------------------|
G|---------------------|---------------------|
D|---------2p0---------|-------5-7p5---------|
A|-----3-3-----3-3/5-5-|-3-5/7-------7p5\3---|
E|-3h5-----------------|---------------------|


(parte 3)

   C                G
E|------------------------------------------|
B|--------------------5-8b10r8-5------------|
G|----------------5-7------------7-5--------|
D|-----5-5-5--5h7---------------------------|
A|-5/7--------------------------------------|
E|------------------------------------------|


(parte 4)

   F             C
E|------------------------------------------|
B|------------------------------------------|
G|-7b8r7-5----------------------------------|
D|---------7-5------------------------------|
A|-------------7----------------------------|
E|---------------8--------------------------|


(parte 5)

        C             G
E|------------------------------------------|
B|------------------------------------------|
G|------------------7/9-7-5h7---------------|
D|-------------5/7-5----------7-------------|
A|-----5/7-3h5------------------------------|
E|-3h5--------------------------------------|


(parte 6)

       Am                 F
E|------------------------------------------|
B|---------8-8b10r8-------------------------|
G|-----7/9----------7b9r8-5-----------------|
D|-5h7--------------------------------------|
A|------------------------------------------|
E|------------------------------------------|


(parte 7)

       C                   G       F
E|---------8----------10b12-10-8------------|
B|-----------8b10r8--------------10-8-------|
G|-----7/9----------9-----------------------|
D|-5h7--------------------------------------|
A|------------------------------------------|
E|------------------------------------------|


(parte 8)

                      C
E|------------------------------------------|
B|---8b10r8---------------------------------|
G|-9--------7b8r7-5h7-5---------------------|
D|------------------------------------------|
A|------------------------------------------|
E|------------------------------------------|


          Am         Am/G       F          C
Let it   be, let it be, let it be, let it be
                  G              F Em/F F6 C
Whisper words of wisdom, let it be.

      C                  G
And when the night is cloudy
           Am                 F           F6
There is still a light that shines on me
  C            G              F Em/F F6 C
Shine until tomorrow, let it be

   C              G
I wake up to the sound of music
 Am          F           F6
Mother Mary comes to me
  C                G              F Em/F F6 C
Speaking words of wisdom, let it be

          Am         Am/G       F          C
Let it   be, let it be, let it be, let it be
                     G           F Em/F F6 C
There will be an answer, let it be
          Am         Am/G       F          C
Let it   be, let it be, let it be, let it be
                  G              F Em/F F6 C
Whisper words of wisdom, let it be.

( F Em/F F6 C Bb Am G F C )

(passagem instrumental)


   F    Em/F F6   C    Bb   Am   G    F    C/E
E|-1----0-----------------------------------|
B|-1----0----3----1----3----1----0---------1|
G|-2----0----2----0----3----2----0----2----0|
D|-----------3----2----3----2----0----3----2|
A|----------------3----1----0---------3----3|
E|-1--1--------------------------3----1----0|


( Em/F )

Receba nossos artigos

*

6 aulas de exercícios de violão

13 aulas de violão iniciante

7 aulas de Violão com Beatles

11 aulas de acordes de violão

7 aulas para evoluir no violão

Sobre nós:

A Primeiros Acordes tem como objetivo ensinar você a aprender a tocar no conforto de sua casa, com aulas, cursos, vídeo-aulas, métodos voltados para o aprendizado online.

Contato

Primeiros Acordes

Email: marcos.dupra@globo.com

Horário: 9:00 ás 18:00 hs

Não temos loja física