Curso de Violão Completo Aprenda Violão sem sair de casa, no horário que desejar.

Ebook Grátis Violão Para você dar os seus primeiros passos no violão.

Fã - Cristian e Cristiano (aula de violão simplificada)

Fã - Cristian e Cristiano (aula de violão simplificada)
Tom: B
(intro) B   G#m   E   F#

(solo intro)

E|-----------------------------------|
B|-----------------------------------|
G|------------------------------3----|
D|--------1-----4-1-------2-4/6---4--|
A|--2/4-2---2/4-----4/6-4------------|
E|-----------------------------------|


(primeira parte)

B F# G#m
Guarde o seu sorriso só pra mim,
E F# B F#
Que eu te dou o universo em meu olhar.
B F# G#m
Se sentir na pele um arrepio
E C#m F#
São meus dedos te tocando pra te contar...

(refrão)
B
Sou fã do seu jeito
G#m
Sou fã da sua roupa
E C#m F#
Sou fã desse sorriso estampado em sua boca
B
Sou fã dos seus olhos
G#m
Sou fã sem medida
E F#
Sou fã número um e com você
B G#m E F#
Sou fã da vida

(repete primeira parte e refrão)

(segunda parte)

G#m E
Quero convencer seu coração
G#m B
Que o meu amor foi feito pra você
E F#
Quero te dizer que essa paixão
E C#m7 F#
Não encontra outra forma pra dizer...

(refrão)
B
Sou fã do seu jeito
G#m
Sou fã da sua roupa
E C#m F#
Sou fã desse sorriso estampado em sua boca
B
Sou fã dos seus olhos
G#m
Sou fã sem medida
E F#
Sou fã número um e com você
B G
Sou fã da vida

(modulação - último refrão)
C
Sou fã do seu jeito
Am
Sou fã da sua roupa
F Dm G
Sou fã desse sorriso estampado em sua boca
C
Sou fã dos seus olhos
Am
Sou fã sem medida
F G
Sou fã número um e com você
C F C
Sou fã da vida

(solo final)
E|----------------------------------------------|
B|--5-5-5\3-3-3\1-1-1---------------------------|
G|--------------------2-4-4/5-4\2-0-------------|
D|-------------------------------------------5--|
A|-----------------------------------3-5-5/7----|
E|----------------------------------------------|

(revisão - Leo Eymard)

Receba nossos artigos

*

6 aulas de exercícios de violão

13 aulas de violão iniciante

7 aulas de Violão com Beatles

11 aulas de acordes de violão

7 aulas para evoluir no violão

Sobre nós:

A Primeiros Acordes tem como objetivo ensinar você a aprender a tocar no conforto de sua casa, com aulas, cursos, vídeo-aulas, métodos voltados para o aprendizado online.

Contato

Primeiros Acordes

Email: marcos.dupra@globo.com

Horário: 9:00 ás 18:00 hs

Não temos loja física