Curso de Violão Completo Aprenda Violão sem sair de casa, no horário que desejar.

Ebook Grátis Violão Para você dar os seus primeiros passos no violão.

Exagerado – Cazuza (aula de violão complete)

Exagerado – Cazuza (aula de violão complete)

Exagerado

Cazuza

 Cazuza
Tom: G
        
(intro) (G D C)


E |---------------|
B |---------------|
G |----------0----|
D |------0h2------|
A |----3--------2-|
E |---------------|


(verso)
 G        D     C
 Amor da minha vida
G              D    C
 Daqui até a eternidade
Em                 D
Nossos destinos foram traçados
    C          Am Bm D
Na maternidade
G                D    C
Paixão cruel, desenfreada
G               D      C
Te trago mil rosas roubadas
Em                       D
Pra desculpar minhas mentiras
 B
Minhas mancadas

(refrão)
           C
     Exagerado
       D
    Jogado aos teus pés
            G      D   C
    Eu sou mesmo exagerado
    Em                  D     C Am Bm D
     Adoro um amor inventado

G                  D    C
Eu nunca mais vou respirar
G            D    C
Se você não me notar
Em                      D
Eu posso até morrer de fome
      C              Am Bm D
Se você não me amar

(pré-refrão)
Em                   Bm
E por você eu largo tudo
 F                D
Vou mendigar, roubar, matar
Em              Bm
Até nas coisas mais banais
F                  D     B7(4)
Pra mim é tudo ou nunca mais

(refrão)
           C
     Exagerado
       D
    Jogado aos teus pés
            G      D   C
    Eu sou mesmo exagerado
    Em                  D     C Am Bm D
     Adoro um amor inventado


(solo) (G D C G D C Em D C Am Bm D Em)
E |--------------------------------------------------------------12-|
B |-15---15---15---15---15------------------------------12/13—15----|
G |-14b--14b--14b--14b--14b--12~-------12-14b--14--12~--------------|
D |------------------------------12/14------------------------------|
A |-----------------------------------------------------------------|
E |-----------------------------------------------------------------|



E |----------------------------------------------------15--12----15--15—12-|
B |-15--13--12/13/12----------------------15----15--12--------12-----------|
G |------------------14--12--14b--14b--16----16----------------------------|
D |------------------------------------------------------------------------|
A |------------------------------------------------------------------------|
E |------------------------------------------------------------------------|


(pré-refrão)
Em                   Bm
E por você eu largo tudo
 F                D
Carreira, dinheiro e canudo
Em              Bm
Até nas coisas mais banais
F                  D     B7(4)
Pra mim é tudo ou nunca mais

(refrão final)
      C
Exagerado
   D
Jogado aos teus pés
        G      D   C
Eu sou mesmo exagerado
Em                  D     C Am Bm D
Adoro um amor inventado
   G
Jogado aos teus pés
         D         C
Com mil rosas roubadas
      G
Exagerado
    Em                D    C Am Bm D
Eu adoro um amor inventado
G                C
Jogado aos seus pés, bem melhor
         G      D    C
Eu sou mesmo exagerado
Em                    D
Adoro um amor inventado

Receba nossos artigos

*

6 aulas de exercícios de violão

13 aulas de violão iniciante

7 aulas de Violão com Beatles

11 aulas de acordes de violão

7 aulas para evoluir no violão

Sobre nós:

A Primeiros Acordes tem como objetivo ensinar você a aprender a tocar no conforto de sua casa, com aulas, cursos, vídeo-aulas, métodos voltados para o aprendizado online.

Contato

Primeiros Acordes

Email: marcos.dupra@globo.com

Horário: 9:00 ás 18:00 hs

Não temos loja física