Curso de Violão Completo Aprenda Violão sem sair de casa, no horário que desejar.

Ebook Grátis Violão Para você dar os seus primeiros passos no violão.

Do alto da pedra – Rosa de Saron (aula de violão completa)

Do alto da pedra – Rosa de Saron (aula de violão completa)

Do Alto da Pedra

Rosa de Saron

 Rosa de Saron
Tom: E
        
(intro)


       C#9                    A9           C#9                    A9
E|-----------------------|------------|-----------------------|---------------|
B|---4-----4---4h5p4-----|-------0----|--4-----4-----4h5p4----|-------0----0--|
G|-----6----6---------6--|-----2---2--|----6-----6---------6--|-----2---2--2--|
D|-------6----6---------6|---2-------2|------6-----6---------6|---2--------2--|
A|-4---------------------|-0----------|-4---------------------|-0----------0--|
E|-----------------------|------------|-----------------------|---------------|


 ( B4  C#m  A ) (2x)

E                 A9
Encontro e sinto
                      C#m7
Você é tudo o que sonhei
                   A9
Não posso me conter
                          E9
E mais que tudo eu quero ir
                               A9
Uma vez que faz-me sentir alguém
                 C#m7
É pra todo sempre
                 A9         B4             E/G#  E/A  E/G#  E/A
Não quero minha vida igual a tudo que se vê...

(refrão)
E
Em Você eu sei me sinto forte
A9
Com Você não temo minha sorte
C#m           A9              E     F#5   G#5
E eu sei que isso veio de Você

E9
Em Você eu sei me sinto forte
A9
Com Você não temo minha sorte
C#m           A9              E     F#5   G#5 A9
E eu sei que isso veio de Você

E                A9                        C#m7
Do Alto da Pedra eu busco impulso pra saltar
                    A9
mais alto que antes , e mais que tudo eu quero ir
E                       A9                        C#m7
Uma vez que faz-me sentir alguem é pra todo sempre
                    A9         B4        E/G#    E/A    E/G#    E/A
Não quero minha vida igual a tudo que se vê

(refrão)
E
Em Você eu sei me sinto forte
A9
Com Você não temo minha sorte
C#m           A9              E     F#5   G#5
E eu sei que isso veio de Você

E
Em Você eu sei me sinto forte
A9
Com Você não temo minha sorte
C#m            A9              E      F#5   G#5 A9
E eu sei que isso veio de Você

(solo)   E   A9   C#m   A9   E   F#5   G#5
         E   A9   C#m   A9   E   F#5  G#5   A9

(solo guitarra)


     E          A9                       C#9  A9               E ( F#m G#m )E
E|---16-16~16^-14--------------------------14-12-11-12-11--------------19-----------------|
B|----------------12h14-12~-------12h14-14----------------14-12~----------17-16-17-16-17--|
G|--------------------------11h13---------------------------------------------------------|
D|----------------------------------------------------------------------------------------|
A|----------------------------------------------------------------------------------------|
E|----------------------------------------------------------------------------------------|



     E                         A9                      C#9                    A9 E
E|---19----------------------19------------------------------------------------16~16------|
B|--------17-16-17-16-17-16-----17-16-17-16--12-14~--16~16~16~16~16~16--12-14-------------|
G|----------------------------------------------------------------------------------------|
D|----------------------------------------------------------------------------------------|
A|----------------------------------------------------------------------------------------|
E|----------------------------------------------------------------------------------------|



     E              ( F#m G#m )      A9                            E
E|----------------------------------------------------------------------------------------|
B|-16-16h17h16h17h16h17---14-12--16-17-19-17-16-17----------------------------------------|
G|--------------------------------------------------16-18^-16-----------------------------|
D|-----------------------------------------16-18-19---------------------------------------|
A|----------------------------------------------------------------------------------------|
E|----------------------------------------------------------------------------------------|


(refrão)

( B4  C#m  A ) (2x)

Receba nossos artigos

*

6 aulas de exercícios de violão

13 aulas de violão iniciante

7 aulas de Violão com Beatles

11 aulas de acordes de violão

7 aulas para evoluir no violão

Sobre nós:

A Primeiros Acordes tem como objetivo ensinar você a aprender a tocar no conforto de sua casa, com aulas, cursos, vídeo-aulas, métodos voltados para o aprendizado online.

Contato

Primeiros Acordes

Email: marcos.dupra@globo.com

Horário: 9:00 ás 18:00 hs

Não temos loja física