VERMILOION Pt.2(aula de violão completa)(Slipknot)

VERMILOION Pt.2(aula de violão completa)(Slipknot)

Vermilion Pt.2

Slipknot

 Slipknot
Tom: D
Intro 2x: G#5  G#5(9)  G#6-  B5

Primeira Parte:
G#5 B5
She seemed dressed in all of me

Stretched across my shame
G#5 B5
All the torment and the pain

Leaked through and covered me
G#5 B5
I'd do anything to have her to myself

Just to have her for myself
G#5 B5
Now I don't know what to do
A
I don't know what to do
B5 B5º
When she makes me sad

G#5 B5
She is everything to me

The unrequited dream
G#5 B5
A song that no one sings
The unattainable
G#5 B5
She's a myth that I have to believe in
G#5
All I need to make it real is one more reason
B5
I don't know what to do
A
I don't know what to do
B5 B5º
When she makes me sad

Refrão:
G7M F# Bm11 D5(6/9)
But I won't let this build up inside of me (3x)
G7M F# Bm11
But I won't let this build up inside of me

E|---------------------------------------------------|
B|----3---3------3---3------3---3------3---3---------|
G|------6---6------6---6------6---6------6---6-------| (3x)
D|--5----------4---------------------0---------------|
A|------------------------2--------------------------|
E|---------------------------------------------------|

E|---------------------------------------------------|
B|----3---3------3---3------3---3--------------------|
G|------6---6------6---6------6---6------------------|
D|--5----------4-------------------------------------|
A|------------------------2--------------------------|
E|---------------------------------------------------|


Segunda Parte: G A G Bm

Em7(9) Bm11
A catch in my throat, choke
F#m7 G7M
Torn into pieces
Bm11
I won't, no!
F#m7 G7M
I don't wanna be this...

E|---------------------------------------------------|
B|---------------------------------------------------|
G|-4-6-7--7--7-7-7-7-9--9-9-9-9----------------------|
D|--------5--5-5-5-5-7--7-7-7-7----------------------|
A|-2-4-5---------------------------------------------|
E|--------3--3-3-3-3-5--5-5-5-5----------------------|
? ? ? ? ? ? ? ? ? ? ? ? ?

E|-------------------0--0-0-0-0----------------------|
B|-------------------3--3-3-3-3----------------------|
G|-6--6-6-6-6--7--3--4--4-4-4-4----------------------|
D|-7--7-7-7-7--5--4--4--4-4-4-4----------------------|
A|-------------------2--2-2-2-2----------------------|
E|-5--5-5-5-5--3-------------------------------------|
? ? ? ? ? ? ? ? ? ? ? ?


Refrão:
G7M F# Bm11 D5(6/9)
But I won't let this build up inside of me (3x)

G7M F#
But I won't let this build up... inside of me

Terceira Parte 2x: G#5 B5

G#5 B5
She isn't real
G#5 B5
I can't make her real (2x)

( G#5 )

APRENDA GUITARRA

viola caipira

Receba nossos artigos

*
 

Sobre nós:

A Primeiros Acordes tem como objetivo ensinar você a aprender a tocar no conforto de sua casa, com aulas, cursos, vídeo-aulas, métodos voltados para o aprendizado online.

Contato

Primeiros Acordes

Email: marcos.dupra@globo.com

Horário: 9:00 ás 18:00 hs

Não temos loja física