Smoke On the Water - Deep Purple

Smoke On the Water - Deep Purple
Tom: F
        
(intro)

(riff 5x)

1ª e 2ª vez (guitarra solo)

E|-----------------------------------------|
B|-----------------------------------------|
G|---3-5----3-6-5----3-5--3----------------|
D|-5-3-5--5-3-6-5--5-3-5--3--5-------------|
A|-5------5--------5---------5-------------|
E|-----------------------------------------|


(restante com acompanhamento)
   Gm                  C  Bb Gm

E|-----------------------------------------|
B|-----------------------------------------|
G|---3-5----3-6-5----3-5--3----------------|
D|-5-3-5--5-3-6-5--5-3-5--3--5-------------|
A|-5------5--------5---------5-------------|
E|-----------------------------------------|


(estrofe 1)
      G5
   We all came out to Montreux
                  F5    G5
   On the lake Geneva shoreline
   To make records with a mobile
F5            G5
   We didn't have much time

   Frank Zappa & the Mothers
                      F5    G5
   Were at the best place around
   But some stupid with a flare gun
                  F5      G5
   Burned the place to the ground.

(refrão)
        C5          Ab5
      Smoke on the water,
       G5
      Fire in the sky
        C5          Ab5
      Smoke on the water

(riff da intro 2x)

(estrofe 2)
G5
   They burned down the gambling house
                   F5     G5
   It died with an awful sound
   Funky & Claude was running in and out,
F5          G5
   Pulling kids out of the ground

   When it all was over,
                    F5          G5
   We had to find another place
   Swiss time was running out
                            F5            G5
   It seemed that we would lose the race.

(refrão)
        C5          Ab5
      Smoke on the water,
       G5
      Fire in the sky
        C5          Ab5
      Smoke on the water

(riff da intro 2x)

(solo guitarra - tab no final da cifra)

(riff da intro 2x)

(estrofe 3)
G5
   We ended up at the Grand Hotel
          F5      G5
   It was empty, cold and bare
   But with the Rolling Trucks Stones thing just outside,
F5              G5
   We made our music there

   With a few red lights an' a few old beds,
               F5       G5
   We made a place to sweat
   No matter what we get out of this,
          F5               G5
   I know,   I know we'll never forget.

(refrão)
        C5          Ab5
      Smoke on the water,
       G5
      Fire in the sky
        C5          Ab5
      Smoke on the water

(riff da intro) repete até o final em fade out com solo de teclado

(solo de guitarra)

(parte 1)

        Gm
E|---------------------------------------------------|
B|-----------b15r13p11-----11b-----------------------|
G|----10-12~-----------12~---------------------------|
D|-12------------------------------------------------|
A|---------------------------------------------------|
E|---------------------------------------------------|


(parte 2)

             F                         Gm
E|---------------------------------------------------|
B|----------11-11b13--11-10-8-10-8h10p8----8---------|
G|----10-12-----------------------------10-----------|
D|-12------------------------------------------------|
A|---------------------------------------------------|
E|---------------------------------------------------|



E|---------------------------------------------------|
B|---------------------------------------------------|
G|-10-8-10-10-12-10-12~------------------------------|
D|---------------------------------------------------|
A|---------------------------------------------------|
E|---------------------------------------------------|


(parte 3)

                            F
E|---------------------------------------------------|
B|----11-13-11-13~13~----11----11-13-11-10-----------|
G|-12-----------------12----12-------------12-11-10--|
D|---------------------------------------------------|
A|---------------------------------------------------|
E|---------------------------------------------------|



                           Gm
E|---------------------------------------------------|
B|---------------------------------------------------|
G|-------10------------------------------------------|
D|-13-10----13-12p10---------------------------------|
A|-------------------13-12-10------------------------|
E|---------------------------------------------------|


(parte 4)

E|---------------------------------------------------|
B|---------------------------------------------------|
G|----------8-7--------------------------------------|
D|-8-7-10-8-----10-8b10r8--10-8-7-8-7-8-7-5----------|
A|---------------------------------------------------|
E|---------------------------------------------------|


(parte 5)

   F                         Gm
E|---------------------------------------------------|
B|---6-8-6-8-8-6-------------------------------------|
G|-7-------------7-6-5-------5-3-5b7-5b7-5b7-5b7-----|
D|---------------------8-7-5-------------------------|
A|---------------------------------------------------|
E|---------------------------------------------------|


(parte 6)

E|-------------6-8b10~-8b10-8-6-8--------------------|
B|---6-8---6-8--------------------8------------------|
G|-7-----7-------------------------------------------|
D|---------------------------------------------------|
A|---------------------------------------------------|
E|---------------------------------------------------|


(parte 7)

          F                          Gm
E|---------------------------------------------------|
B|----11-----11-13-11----13-11----13-11-13-15-16-----|
G|-12-----12----------12-------12--------------------|
D|---------------------------------------------------|
A|---------------------------------------------------|
E|---------------------------------------------------|



E|---------------------------------------------------|
B|-18-18b20~-----------------------------------------|
G|---------------------------------------------------|
D|---------------------------------------------------|
A|---------------------------------------------------|
E|---------------------------------------------------|


(parte 8)

      C
E|-------------15------------------------------------|
B|-18b20-18-18----18-18b20--18b20-18-15-13~----------|
G|---------------------------------------------------|
D|---------------------------------------------------|
A|---------------------------------------------------|
E|---------------------------------------------------|


(parte 9)

   F
E|---------------------------------------------------|
B|-----6---------------------13-11-13-13b15~---------|
G|-5b7---5b6r5p3-5-3~--11/12-------------------------|
D|-------------------5-------------------------------|
A|---------------------------------------------------|
E|---------------------------------------------------|


(parte 10)

   Gm
E|---------------------------------------------------|
B|-b15-b15-b15-b15-b15-b15-b15-b15-r14-r14-r14-r13---|
G|---------------------------------------------------|
D|---------------------------------------------------|
A|---------------------------------------------------|
E|---------------------------------------------------|


E|---------------------------------------------------|
B|---------------------------------------------------|
G|-13-10b12~-----------------------------------------|
D|---------------------------------------------------|
A|---------------------------------------------------|
E|---------------------------------------------------|
Smoke On the Water - Deep Purple
  Tom: F
                 
(intro)
   
  (riff 5x)
   
  1ª e 2ª vez (guitarra solo)
  
  E|-----------------------------------------|
  B|-----------------------------------------|
  G|---3-5----3-6-5----3-5--3----------------|
  D|-5-3-5--5-3-6-5--5-3-5--3--5-------------|
  A|-5------5--------5---------5-------------|
  E|-----------------------------------------|
  
   
  (restante com acompanhamento)
     Gm                  C  Bb Gm
  
  E|-----------------------------------------|
  B|-----------------------------------------|
  G|---3-5----3-6-5----3-5--3----------------|
  D|-5-3-5--5-3-6-5--5-3-5--3--5-------------|
  A|-5------5--------5---------5-------------|
  E|-----------------------------------------|
  
   
  (estrofe 1)
        G5
     We all came out to Montreux
                    F5    G5
     On the lake Geneva shoreline
     To make records with a mobile
  F5            G5
     We didn't have much time
   
     Frank Zappa & the Mothers
                        F5    G5
     Were at the best place around
     But some stupid with a flare gun
                    F5      G5
     Burned the place to the ground.
   
  (refrão)
          C5          Ab5
        Smoke on the water,
         G5
        Fire in the sky
          C5          Ab5
        Smoke on the water
   
  (riff da intro 2x)
   
  (estrofe 2)
  G5
     They burned down the gambling house
                     F5     G5
     It died with an awful sound
     Funky & Claude was running in and out,
  F5          G5
     Pulling kids out of the ground
   
     When it all was over,
                      F5          G5
     We had to find another place
     Swiss time was running out
                              F5            G5
     It seemed that we would lose the race.
   
  (refrão)
          C5          Ab5
        Smoke on the water,
         G5
        Fire in the sky
          C5          Ab5
        Smoke on the water
   
  (riff da intro 2x)
   
  (solo guitarra - tab no final da cifra)
   
  (riff da intro 2x)
   
  (estrofe 3)
  G5
     We ended up at the Grand Hotel
            F5      G5
     It was empty, cold and bare
     But with the Rolling Trucks Stones thing just outside,
  F5              G5
     We made our music there
   
     With a few red lights an' a few old beds,
                 F5       G5
     We made a place to sweat
     No matter what we get out of this,
            F5               G5
     I know,   I know we'll never forget.
   
  (refrão)
          C5          Ab5
        Smoke on the water,
         G5
        Fire in the sky
          C5          Ab5
        Smoke on the water
   
  (riff da intro) repete até o final em fade out com solo de teclado
   
  (solo de guitarra)
   
  (parte 1)
  
          Gm
  E|---------------------------------------------------|
  B|-----------b15r13p11-----11b-----------------------|
  G|----10-12~-----------12~---------------------------|
  D|-12------------------------------------------------|
  A|---------------------------------------------------|
  E|---------------------------------------------------|
  
   
  (parte 2)
  
               F                         Gm
  E|---------------------------------------------------|
  B|----------11-11b13--11-10-8-10-8h10p8----8---------|
  G|----10-12-----------------------------10-----------|
  D|-12------------------------------------------------|
  A|---------------------------------------------------|
  E|---------------------------------------------------|
  
   
  
  E|---------------------------------------------------|
  B|---------------------------------------------------|
  G|-10-8-10-10-12-10-12~------------------------------|
  D|---------------------------------------------------|
  A|---------------------------------------------------|
  E|---------------------------------------------------|
  
   
  (parte 3)
  
                              F
  E|---------------------------------------------------|
  B|----11-13-11-13~13~----11----11-13-11-10-----------|
  G|-12-----------------12----12-------------12-11-10--|
  D|---------------------------------------------------|
  A|---------------------------------------------------|
  E|---------------------------------------------------|
  
   
  
                             Gm
  E|---------------------------------------------------|
  B|---------------------------------------------------|
  G|-------10------------------------------------------|
  D|-13-10----13-12p10---------------------------------|
  A|-------------------13-12-10------------------------|
  E|---------------------------------------------------|
  
   
  (parte 4)
  
  E|---------------------------------------------------|
  B|---------------------------------------------------|
  G|----------8-7--------------------------------------|
  D|-8-7-10-8-----10-8b10r8--10-8-7-8-7-8-7-5----------|
  A|---------------------------------------------------|
  E|---------------------------------------------------|
  
   
  (parte 5)
  
     F                         Gm
  E|---------------------------------------------------|
  B|---6-8-6-8-8-6-------------------------------------|
  G|-7-------------7-6-5-------5-3-5b7-5b7-5b7-5b7-----|
  D|---------------------8-7-5-------------------------|
  A|---------------------------------------------------|
  E|---------------------------------------------------|
  
   
  (parte 6)
  
  E|-------------6-8b10~-8b10-8-6-8--------------------|
  B|---6-8---6-8--------------------8------------------|
  G|-7-----7-------------------------------------------|
  D|---------------------------------------------------|
  A|---------------------------------------------------|
  E|---------------------------------------------------|
  
   
  (parte 7)
  
            F                          Gm
  E|---------------------------------------------------|
  B|----11-----11-13-11----13-11----13-11-13-15-16-----|
  G|-12-----12----------12-------12--------------------|
  D|---------------------------------------------------|
  A|---------------------------------------------------|
  E|---------------------------------------------------|
  
   
  
  E|---------------------------------------------------|
  B|-18-18b20~-----------------------------------------|
  G|---------------------------------------------------|
  D|---------------------------------------------------|
  A|---------------------------------------------------|
  E|---------------------------------------------------|
  
   
  (parte 8)
  
        C
  E|-------------15------------------------------------|
  B|-18b20-18-18----18-18b20--18b20-18-15-13~----------|
  G|---------------------------------------------------|
  D|---------------------------------------------------|
  A|---------------------------------------------------|
  E|---------------------------------------------------|
  
   
  (parte 9)
  
     F
  E|---------------------------------------------------|
  B|-----6---------------------13-11-13-13b15~---------|
  G|-5b7---5b6r5p3-5-3~--11/12-------------------------|
  D|-------------------5-------------------------------|
  A|---------------------------------------------------|
  E|---------------------------------------------------|
  
   
  (parte 10)
  
     Gm
  E|---------------------------------------------------|
  B|-b15-b15-b15-b15-b15-b15-b15-b15-r14-r14-r14-r13---|
  G|---------------------------------------------------|
  D|---------------------------------------------------|
  A|---------------------------------------------------|
  E|---------------------------------------------------|
  
   
  E|---------------------------------------------------|
  B|---------------------------------------------------|
  G|-13-10b12~-----------------------------------------|
  D|---------------------------------------------------|
  A|---------------------------------------------------|
  E|---------------------------------------------------|

APRENDA GUITARRA

viola caipira

Receba nossos artigos

*
 

Sobre nós:

A Primeiros Acordes tem como objetivo ensinar você a aprender a tocar no conforto de sua casa, com aulas, cursos, vídeo-aulas, métodos voltados para o aprendizado online.

Contato

Primeiros Acordes

Email: marcos.dupra@globo.com

Horário: 9:00 ás 18:00 hs

Não temos loja física