Iron man

Tom: B
        
Intro:
Efeito incial:

E|---------------------------------------------------|
B|---------------------------------------------------|
G|---------------------------------------------------|
D|---------------------------------------------------|
A|---------------------------------------------------|
E|-0b3r0---0b3r0---0b3r0-----------------------------|
I am Iron Man

Riff 1: B5  D5  E5 ( G5  F#5 ) (3x)  D5 E5


E|---------------------------------------------------|
B|---------------------------------------------------|
G|---------------------------------------------------|   (2x)
D|---------------------------------------------------|
A|-9-12--12-14-14--17\16-17\16-17\16-12-12-14-14-----|
E|-7-10--10-12-12--15\14-15\14-15\14-10-10-12-12-----|


Riff - Primeira Parte:

E|---------------------------------------------------|
B|---------------------------------------------------|
G|---------------------------------------------------|
D|------------5p4-5p4-5p4----------------------------|  (2x)
A|---5-5-7-7--------------5-5-7-7--------------------|
E|-7-------------------------------------------------|


Has he lost his mind?
Can he see or is he blind?

Can he walk at all,
Or if he moves will he fall?


(Riff 1 -Primeira Parte - Continuação:
E|---------------------------------------------------|
B|---------------------------------------------------|
G|---------------------------------------------------|
D|------------5p4-5p4-5p4----------------------------|
A|---5-5-7-7--------------5-5-7-7--------------------|


E|-7-------------------------------------------------|


Is he alive or dead?
Has he thoughts within his head?

Well just pass him there
Why should we even care?

Riff 2:

E|---------------------------------------------------|
B|---------------------------------------------------|
G|---------------------------------------------------|  (2x)
D|---------------------------------------------------|
A|-----5---------------------------------------------|
E|-7-7---7-7-6-5-5-5---0-4-5-5-6---------------------|



E|---------------------------------------------------|
B|---------------------------------------------------|
G|---------------------------------------------------|
D|---------------------------------------------------|
A|-----5---------------------------------------------|
E|-7-7---7-7-6-5-5-5---------------------------------|


(Riff 1 - 2x)

Primeira Parte - Variação:

He was turned to steel
In the great magnetic field

Where he traveled time
For the future of mankind

Segunda Parte - Passagem:
E5
   Nobody wants him
D5
   He just stares at the world

Riff 3:

 B5
E|---------------------------------------------------|
B|---------------------------------------------------|
G|---------------------------------------------------|   (2x)
D|-------------------7-8-9---------------------------|
A|-9-9-5-6-7--7-8-9----------------------------------|
E|-7-7-----------------------------------------------|


E5
   Planning his vengeance
D5
   That he will soon unfold

Riff 3:

 B5
E|---------------------------------------------------|
B|---------------------------------------------------|
G|---------------------------------------------------|   (2x)
D|-------------------7-8-9---------------------------|
A|-9-9-5-6-7--7-8-9----------------------------------|
E|-7-7-----------------------------------------------|



E|---------------------------------------------------|
B|---------------------------------------------------|
G|-6-4-----------------------------------------------|   (2x)
D|-----6-5-4-2---------------------------------------|
A|-------------0-2h4-4-------------------------------|
E|---------------------------------------------------|


Solo: Tom de DÓ# menor - Escala Pentatônica Menor

Primeira Parte - Variação:

Now the time is here
For iron man to spread fear

Vengeance from the grave
Kills the people he once saved

Segunda Parte:
E5
   Nobody wants him
D5
   They just turn their heads

E5
   Nobody helps him
D5
   Now he has his revenge

Primeira Parte - Variação:

Heavy boots of lead
Fills his victims full of dread

Running as fast as they can
Iron man lives again!

Riff 2:

E|---------------------------------------------------|
B|---------------------------------------------------|
G|---------------------------------------------------|  (2x)
D|---------------------------------------------------|
A|-----5---------------------------------------------|
E|-7-7---7-7-6-5-5-5---0-4-5-5-6---------------------|



E|---------------------------------------------------|
B|---------------------------------------------------|
G|---------------------------------------------------|
D|---------------------------------------------------|
A|-----5---------------------------------------------|
E|-7-7---7-7-6-5-5-5---------------------------------|


Riff 4:

E|---------------------------------------------------|
B|---------------------------------------------------|
G|---------------------------------------------------|
D|-------------------------4-5-4-5-4-----------------|
A|-7-5-7---5-7-5---5-7-5---------------5-------------|
E|---------------------------------------------------|



E|---------------------------------------------------|
B|---------------------------------------------------|
G|---------------------------------------------------|
D|-------------------------4-5-4-5-4-----------------|
A|-7-5-7---5-7-5---5-7-5---------------5-7-5-7-------|
E|---------------------------------------------------|


E|---------------------------------------------------|
B|---------------------------------------------------|
G|-6-4-----------------------------------------------|   (2x)
D|-----6-5-4-2---------------------------------------|
A|-------------0-2h4-4-------------------------------|
E|---------------------------------------------------|

APRENDA GUITARRA

viola caipira

Receba nossos artigos

*
 

Sobre nós:

A Primeiros Acordes tem como objetivo ensinar você a aprender a tocar no conforto de sua casa, com aulas, cursos, vídeo-aulas, métodos voltados para o aprendizado online.

Contato

Primeiros Acordes

Email: marcos.dupra@globo.com

Horário: 9:00 ás 18:00 hs

Não temos loja física