Fuel – Metellica

Tom: G
Afinação: Eb Ab Db Gb Bb Eb
        
Intro:

Gimme fuel
Gimme fire
Gimme that which I desire

Riff 1:

(Parte 1)
Eb|---------------------------------------------------|
Bb|---------------------------------------------------|
Gb|---------------------------------------------------|
Db|---------------------------------------------------|
Ab|---------------------------------------------------|
Eb|-3p0-0-3p0-0-3p0--3p0-0-3p0-0-3p0------------------|

Eb|---------------------------------------------------|
Bb|---------------------------------------------------|
Gb|---------------------------------------------------|
Db|---------------------------------------------------|
Ab|---------------------------------------------------|
Eb|-3p0-0-3p0-0-3p0--3p0-0-3p0-0-3p0--3p0-0-3p0-0-3p0-|

(Parte 2)
Eb|---------------------------------------------------|
Bb|---------------------------------------------------|
Gb|---------------------------------------------------|
Db|-5/7-7-7-7\5-5/7-----------------------------------|
Ab|---------------------------------------------------|
Eb|-3/5-5-5-5\3-3/5-----------------------------------|

(Parte 1 - Apenas Segunda Tab)
Eb|---------------------------------------------------|
Bb|---------------------------------------------------|
Gb|---------------------------------------------------|
Db|---------------------------------------------------|
Ab|---------------------------------------------------|
Eb|-3p0-0-3p0-0-3p0--3p0-0-3p0-0-3p0--3p0-0-3p0-0-3p0-|

(Parte 3)
Eb|---------------------------------------------------|
Bb|---------------------------------------------------|
Gb|---------------------------------------------------|
Db|-5/7-7-7-7\5---------------------------------------|
Ab|--------------5h7----------------------------------|
Eb|-3/5-5-5-5\3---------------------------------------|

Riff 2:

(Parte 1)
Eb|---------------------------------------------------|
Bb|---------------------------------------------------|
Gb|---------------------------------------------------|
Db|-7-7-7-5b*--------7-7-7-5b*--------7-7-7-5b*-------|
Ab|-----------7-5h7------------7-5h7------------7-5h7-|
Eb|---------------------------------------------------|

(Parte 2)
Eb|---------------------------------------------------|
Bb|---------------------------------------------------|
Gb|---------------------------------------------------|
Db|-7-7-7-5b*-----------------------------------------|
Ab|-----------7-5\------------------------------------|
Eb|---------------------------------------------------|

(Riff 1 - Parte 1 - Apenas Primeira Tab)
Eb|---------------------------------------------------|
Bb|---------------------------------------------------|
Gb|---------------------------------------------------|
Db|---------------------------------------------------|
Ab|---------------------------------------------------|
Eb|-3p0-0-3p0-0-3p0—3p0-0-3p0-0-3p0-------------------|

Yeah

Primeira Parte:

(Parte 1)
Eb|---------------------------------------------------|
Bb|---------------------------------------------------|
Gb|------14-14-14-12-----------14-14-14-12------------|
Db|-2-5--14-14-14-12-----------14-14-14-12------------|
Ab|-2-5---------------14-12h14--------------14-12\----|
Eb|-0-3-----------------------------------------------|

(Parte 2)
Eb|---------------------------------------------------|
Bb|---------------------------------------------------|
Gb|---------------------------------------------------|
Db|-2-9-8-7-------------------------------------------|
Ab|-2-9-8-7-5/7---------------------------------------|
Eb|-0-7-6-5-------------------------------------------|

(Riff 2)

(Parte 3)
Eb|---------------------------------------------------|
Bb|---------------------------------------------------|
Gb|---------------------------------------------------|
Db|-7-7-7-5b*--------7-7-7-5b*--------7-7-7-5b*-------|
Ab|-----------7-5h7------------7-5h7------------7-5h7-|
Eb|---------------------------------------------------|

(Parte 4)
Eb|---------------------------------------------------|
Bb|---------------------------------------------------|
Gb|---------------------------------------------------|
Db|-7-7-7-5b*-----------------------------------------|
Ab|-----------7-5\------------------------------------|
Eb|---------------------------------------------------|

(Riff 1 - Parte 1 ) Apenas a Segunda Tab

(Parte 5)
Eb|---------------------------------------------------|
Bb|---------------------------------------------------|
Gb|---------------------------------------------------|
Db|---------------------------------------------------|
Ab|---------------------------------------------------|
Eb|-3p0-0-3p0-0-3p0--3p0-0-3p0-0-3p0--3p0-0-3p0-0-3p0-|

(Parte 6)
Eb|---------------------------------------------------|
Bb|---------------------------------------------------|
Gb|---------------------------------------------------|
Db|---------------------------------------------------|
Ab|---------------------------------------------------|
Eb|-3p0-0-3p0-0-3p0—3p0-0-3p0-0-3p0--3p0-0-3p0-0-3p0--|

(Parte 7)
   H.N*  *  * *  *  * *
Eb|---------------------------------------------------|
Bb|---------------------------------------------------|
Gb|---------------------------------------------------|
Db|---------------------------------------------------|
Ab|---------------------------------------------------|
Eb|-2--2--3--4-4--5--7-7------------------------------|
 Harmônicos naturais


Turn on, I see red
Adrenaline crash and crack my head
Nitro junkie, paint me dead

(Riff 2)           (Riff1)
         And I see red

(Primeira Parte)
A hundred plus through black and white
War horse
War head
Fuck 'em, man
               (Riff 2)
White knuckle tight
                    (Riff 1)
Through black and white

Refrão:

(Parte 1)
Eb|---------------------------------------------------|
Bb|---------------------------------------------------|
Gb|---------------------------------------------------|
Db|-2p0---2-2-----2p0---2-2---------------------------|
Ab|---------------------------0-----------------------|
Eb|-----0-----0-0-----0-----0-------------------------|
       pm    pm.     pm    pm.

(Parte 2)
Eb|---------------------------------------------------|
Bb|---------------------------------------------------|
Gb|---------------------------------------------------|
Db|-2p0---2-2-----2p0---2-2---------------------------|
Ab|-----0-----0-0-----0-----0-------------------------|
Eb|---------------------------0-----------------------|
       pm    pm.     pm    pm.

(Parte 3)
Eb|---------------------------------------------------|
Bb|---------------------------------------------------|
Gb|---------------------------------------------------|
Db|-2p0---2-2-----2p0---2-2---------------------------|
Ab|---------------------------0-----------------------|
Eb|-----3-----3-3-----3-----3-------------------------|
       pm    pm.     pm    pm.

(Parte 4)
Eb|---------------------------------------------------|
Bb|---------------------------------------------------|
Gb|---------------------------------------------------|
Db|-2p0---2-2-----2p0---2-2---------------------------|
Ab|-----0-----0-0-----0-------------------------------|
Eb|-------------------------0-0-----------------------|
       pm    pm.     pm    pm.

(Parte 5)
Eb|---------------------------------------------------|
Bb|---------------------------------------------------|
Gb|---------------------------------------------------|
Db|-5p2---2-2-----5p2---2-2---------------------------|
Ab|---------------------------0-----------------------|
Eb|-----0-----0-0-----0-----0-------------------------|
       pm    pm.     pm    pm.

(Parte 6)
Eb|---------------------------------------------------|
Bb|---------------------------------------------------|
Gb|---------------------------------------------------|
Db|-5p2---2-2-----5p2---2-2---------------------------|
Ab|-----0-----0-0-----0-----0-3-----------------------|
Eb|---------------------------------------------------|
       pm    pm.     pm    pm.

(Parte 7)
Eb|---------------------------------------------------|
Bb|---------------------------------------------------|
Gb|---------------------------------------------------|
Db|-5p2---2-2-----5p2---2-2---------------------------|
Ab|-----3-----3-3-----3-----3-5-----------------------|
Eb|---------------------------------------------------|
       pm    pm.      pm   pm.

(Parte 8)
Eb|---------------------------------------------------|
Bb|---------------------------------------------------|
Gb|---------------------------------------------------|
Db|-7p4---4-4-----7p4---4-4-4\------------------------|
Ab|-----5-----5-5-----5-------------------------------|
Eb|---------------------------------------------------|
       pm    pm.      pm

(Riff 1 - Parte 1 - Apenas Primeira Tab)
Eb|---------------------------------------------------|
Bb|---------------------------------------------------|
Gb|---------------------------------------------------|
Db|---------------------------------------------------|
Ab|---------------------------------------------------|
Eb|-3p0-0-3p0-0-3p0—3p0-0-3p0-0-3p0-------------------|


Oh
On I burn
Fuel is pumping engines
Burning hard
Loose and clean
Oh
And then I burn
Turning my direction
                           (Riff 1)
Quench my thirst with gasoline

(Repetir o começo e a Primeira Parte)

So gimme fuel
Gimme fire
Gimme that which I desire

(Riff 1)
          Yeah
(Riff 2)

(Riff 1)

(Primeira Parte)
Turn on beyond the bone
Swallow future, spit out hope
                           (Riff 2)
Burn your face upon the chrome

      (Riff 1)
Yeah, oh yeah

(Primeira Parte)
Take the corner, going to crash
Headlights
Headlines
                           (Riff 2)
Another junkie, lives too fast
Yeah
               (Riff 1)
Lives way too fast, fast, fast, fast, fast, fast
Oh

(Refrão)
Oh
On I burn
Fuel is pumping engines
Burning hard
Loose and clean
Oh
And then I burn
Turning my direction
                           (Riff 1)
Quench my thirst with gasoline

So gimme fuel
Gimme fire
Gimme that which I desire
Oh yeah

Segunda Parte:

(Parte 1)
Eb|---------------------------------------------------|
Bb|---------------------------------------------------|
Gb|---------------------------------------------------|
Db|-7-7-7-5-------------7-7-7-5--------5--------------|
Ab|-7-7-7-5-7\-2-2-2-2--7-7-7-5-7\-2-2-5--------------|
Eb|---------7\-0-0-0-0----------7\-0-0-3--------------|
              pm.....             pm.

(Parte 2)
Eb|---------------------------------------------------|
Bb|---------------------------------------------------|
Gb|------------------------------------12~\-----------|
Db|-7-7-7-5-------------7-7-7-5--------12~\-----------|
Ab|-7-7-7-5-7\-2-2-2-2--7-7-7-5-7\-2-2----------------|
Eb|---------7\-0-0-0-0----------7\-0-0----------------|
              pm.....             pm.

(Repete Parte 1)

(Repete Parte 2)

(Parte 3)
Eb|---------------------------------------------------|
Bb|-14-14-14-12~--------------14-14-14-12~------------|
Gb|-14-14-14-12~-------12-----14-14-14-12~-------12b13|
Db|-----------------------14~-------------------------|
Ab|--------------12h14---------------------12h14------|
Eb|---------------------------------------------------|

(Tocar 4 tudo vezes)

(Parte 4)
Eb|---------------------------------------------------|
Bb|---------------------------------------------------|
Gb|-------14-14-14-12b*----------14-14-14-12b*--------|
Db|-12h14---------------14-12h14---------------14-----|
Ab|---------------------------------------------------|
Eb|---------------------------------------------------|

Eb|---------------------------------------------------|
Bb|---------------------------------------------------|
Gb|-------14-14-14-12b*-------------------------------|
Db|-12h14---------------14----------------------------|
Ab|---------------------------------------------------|
Eb|---------------------------------------------------|

(Parte 5)
Eb|---------------------------------------------------|
Bb|---------------------------------------------------|
Gb|-12-14-14b16r14-12-14b16r14-12-14b16r14-12---------|
Db|---------------------------------------------------|
Ab|---------------------------------------------------|
Eb|---------------------------------------------------|

(Guitarra Base: a Partir da Parte 3 da Segunda Parte da Música)

(Parte 3)
Eb|---------------------------------------------------|
Bb|---------------------------------------------------|
Gb|---------------------------------------------------|
Db|-7-7-7-5-----5----------7-7-7-5---5----------------|
Ab|-7-7-7-5-----5-7\-2-2---7-7-7-5-7-5----------------|
Eb|---------7-5---7\-0-0-----------7---0--------------|
           pm.      pm.               pm
Eb|---------------------------------------------------|
Bb|---------------------------------------------------|
Gb|---------------------------------------------------|
Db|-7-7-7-5-----5----------7-7-7-5---5b6r5~-----------|
Ab|-7-7-7-5-----5-7\-2-2---7-7-7-5-7-5b6r5~-----------|
Eb|---------7-5---7\-0-0-----------7------------------|
           pm.      pm.
Eb|---------------------------------------------------|
Bb|---------------------------------------------------|
Gb|---------------------------------------------------|
Db|-7-7-7-5-----5----------7-7-7-5---5----------------|
Ab|-7-7-7-5-----5-7\-2-2---7-7-7-5-7-5----------------|
Eb|---------7-5---7\-0-0-----------7---0--------------|
           pm.      pm.               pm
Eb|---------------------------------------------------|
Bb|---------------------------------------------------|
Gb|---------------------------------------------------|
Db|-7-7-7-5-----5----------7-7-7-5---5~---------------|
Ab|-7-7-7-5-----5-7\-2-2---7-7-7-5-7-5~-5h7-----------|
Eb|---------7-5---7\-0-0-----------7------------------|
           pm.      pm.

(Parte 4) Riff 2
White knuckle tight

Solo 1:

(Parte 1)
Eb|---------------12----------------------------------|
Bb|-15b17r15b17~--15b17r15b17~------------------------|
Gb|---------------------------------------------------|
Db|---------------------------------------------------|
Ab|---------------------------------------------------|
Eb|---------------------------------------------------|

(Parte 2)
Eb|-15b17-15-14-15p14---------------------------------|
Bb|-------------------15------------------------------|
Gb|----------------------14-12\11---------------------|
Db|-------------------------------12~-----------------|
Ab|---------------------------------------------------|
Eb|---------------------------------------------------|

(Parte 3)
Eb|---------------------------------------------------|
Bb|-------------------------15-15p14----14-------14-15|
Gb|----------12----12-14/16----------16----14h16------|
Db|-12-12/14----14------------------------------------|
Ab|---------------------------------------------------|
Eb|---------------------------------------------------|

Eb|----14-15-17-17b19r17-17-15------------------------|
Bb|-17-------------------------17-17\-----------------|
Gb|---------------------------------------------------|
Db|---------------------------------------------------|
Ab|---------------------------------------------------|
Eb|---------------------------------------------------|

(Parte 4)
Eb|-7/9-7~-7/9-7~-------------------------------------|
Bb|---------------------------------------------------|
Gb|-7/9-7~-7/9-7~--4r2-4r2-4r2-4r2p0------------------|
Db|----------------------------------2p0-2~\----------|
Ab|---------------------------------------------------|
Eb|---------------------------------------------------|

(Parte 5)
Eb|-7/9-7~-7/9-7~--9-9/12~-12/16~-16~-16\-------------|
Bb|---------------------------------------------------|
Gb|-7/9-7~-7/9-7~--9-9/12~-12/16~-16~-16\-------------|
Db|---------------------------------------------------|
Ab|---------------------------------------------------|
Eb|---------------------------------------------------|

(Parte 6)
Eb|-----0-------0---------0---------0---------0-------|
Bb|-------3-3b5---3p0-------3p0-3b5---3p0-------3-3b5-|
Gb|-2b4---------------2b4-----------------2b4---------|
Db|---------------------------------------------------|
Ab|---------------------------------------------------|
Eb|---------------------------------------------------|

Eb|-0-----3p0---0-0-0---------------------------------|
Bb|---3p0-----3---3-3---------------------------------|
Gb|---------------------------------------------------|
Db|---------------------------------------------------|
Ab|---------------------------------------------------|
Eb|---------------------------------------------------|

Solo 2: (Base do Refrão)

(Parte 1)
Eb|---------------------------------------------------|
Bb|------7-7h8------7-8-8/10--------7-8-8/10-8-7-7h8--|
Gb|-9~-9-------9~-9----------9~-9-9-------------------|
Db|---------------------------------------------------|
Ab|---------------------------------------------------|
Eb|---------------------------------------------------|

(Parte 2)
Eb|---------------------------------------------------|
Bb|-7h8p7---7------7-7h8------7-8-8/10----8p7-8-7h8p7-|
Gb|-------9---9~-9-------9~-9----------9~-------------|
Db|---------------------------------------------------|
Ab|---------------------------------------------------|
Eb|---------------------------------------------------|

(Parte 3)
Eb|---------------------------------------------------|
Bb|---7-8-8/10----------------------------------------|
Gb|-9-------------------------------------------------|
Db|---------------------------------------------------|
Ab|---------------------------------------------------|
Eb|---------------------------------------------------|

(Parte 1)
Eb|---------------------------------------------------|
Bb|------7-7h8------7-8-8/10--------7-8-8/10-8-7-7h8--|
Gb|-9~-9-------9~-9----------9~-9-9-------------------|
Db|---------------------------------------------------|
Ab|---------------------------------------------------|
Eb|---------------------------------------------------|

(Parte 4)
Eb|---------------------------------------------------|
Bb|-7h8p7---7------7-7h8------7-8-8/10--------7-8-----|
Gb|-------9---9~-9-------9~-9----------9~-9-9---------|
Db|---------------------------------------------------|
Ab|---------------------------------------------------|
Eb|---------------------------------------------------|

(Parte 5)
Eb|---------------------------------------------------|
Bb|-10-10-10-10-10-10-10-10-10/12-12-12-12-12-12-12-12|
Gb|---------------------------------------------------|
Db|---------------------------------------------------|
Ab|---------------------------------------------------|
Eb|---------------------------------------------------|

(Parte 6)
Eb|-12------------------------------------------------|
Bb|----15b17tr----------------------------------------|
Gb|---------------------------------------------------|
Db|---------------------------------------------------|
Ab|---------------------------------------------------|
Eb|---------------------------------------------------|


Oh
Gimme fuel
Gimme fire
My desire
Oh
On I burn
Fuel is pumping engines
Burning hard
Loose and clean
Oh
And on and on
Turning my direction
                           (Riff 1)
Quench my thirst with gasoline

Gimme fuel
Gimme fire
Gimme that which I desire

(Riff 1)
Oh

(Riff 2)
         On I burn

APRENDA GUITARRA

viola caipira

Receba nossos artigos

*
 

Sobre nós:

A Primeiros Acordes tem como objetivo ensinar você a aprender a tocar no conforto de sua casa, com aulas, cursos, vídeo-aulas, métodos voltados para o aprendizado online.

Contato

Primeiros Acordes

Email: marcos.dupra@globo.com

Horário: 9:00 ás 18:00 hs

Não temos loja física