Bala de prata- Fernando e Sorocaba

Bala de prata- Fernando e Sorocaba

Bala de Prata

Fernando e Sorocaba

 Fernando e Sorocaba
Tom: A
(intro)  A Bm7  A  Bm7 A  Bm7  D

A9
Criminosa
E F#m
Não posso olhar dentro do seu olhar
D A9
Bala de Prata acerta pra matar
E D
Virei seu refém e não quero escapar
A9
Bandida
E F#m
Você atirou em minha direção
D A9
E acertou bem no meu coração
E D
Minha vida ficou na palma de suas mãos

(solo base) A9 E F#m7 D9

(solo)

E|-------9-----------------10-9------------------------|
B|-10-12---9-10-12----9-10------12-10------------------| (2x)
G|-----------------11----------------------------------|
D|-----------------------------------------------------|
A|-----------------------------------------------------|
E|-----------------------------------------------------|

(segunda versão do solo)
E|-------------------------------------|
B|-10-12-14-9-10-12-7-9-10-15-14-12----|
G|-------------------------------------|
D|-7--9--11-6-7--9--4-6-7--12-11-9-----|
A|-------------------------------------|
E|-------------------------------------|


A9 E F#m7
Hoje cedo acordei, mas sei lá
D9 A9
uma coisa diferente em mim
E F#m7
O meu corpo arranhado, suado
D9 A9
uma história sem começo e fim
E F#m7
Ela entrou no meio da noite
D9 A9
tem a chave do meu coração
E F#m7
de repente soltou seus cabelos
D9
me entreguei sem ter reação

A9 E F#m7
Não posso olhar dentro do seu olhar
D A9
Bala de Prata acerta pra matar
E D
Virei seu refém e não quero escapar
A9
Bandida
E F#m
Você atirou em minha direção
D A9
E acertou bem no meu coração
E D
Minha vida ficou na palma de suas mãos

A9 E F#m7
Estou vivendo na cela da paixão
D9 A9
eu fui condenado pelo amor
E F#m7
Ela é perigo é abrigo
D9 A9
uma mistura de querer e dor
E F#m7
Ela é um pouco do fogo e do gelo
D9 A9
ela é sol é chuva de verão
E F#m7
O seu charme me fez prisioneiro
D9
invadiu de vez meu coração

A9 E F#m
Não posso olhar dentro do seu olhar
D A9
Bala de Prata acerta pra matar
E D
Virei seu refém e não quero escapar
A9
Bandida
E F#m
Você atirou em minha direção
D A9
E acertou bem no meu coração
E D
Minha vida ficou na palma de suas mãos

(solo)

A9 E F#m
Não posso olhar dentro do seu olhar
D A9
Bala de Prata acerta pra matar
E D
Virei seu refém e não quero escapar
A9
Bandida
E F#m
Você atirou em minha direção
D A9
E acertou bem no meu coração
E D
Minha vida ficou na palma de suas mãos

(solo 2)

E|--------------------------------|
B|-10-7---------10-7--------------|
G|------9-6----------9-6----------|
D|----------9-7----------7------7-|
A|--------------------------7-9---|
E|--------------------------------|

E|--------------------------------|
B|-10-7---------------------------|
G|------9-6------6-----7-6--------|
D|----------9-7----9-7------9-7---|
A|--------------------------------|
E|--------------------------------|


A9
Criminosa

violAO

APRENDA VIOLÃO

violÃO

Receba nossos artigos

*
 

6 aulas de exercícios de violão

13 aulas de violão iniciante

7 aulas de Violão com Beatles

11 aulas de acordes de violão

7 aulas para evoluir no violão

Sobre nós:

A Primeiros Acordes tem como objetivo ensinar você a aprender a tocar no conforto de sua casa, com aulas, cursos, vídeo-aulas, métodos voltados para o aprendizado online.

Contato

Primeiros Acordes

Email: marcos.dupra@globo.com

Horário: 9:00 ás 18:00 hs

Não temos loja física