Apenas Mais Uma de Amor Lulu Santos

Apenas mais uma de amor

Apenas Mais Uma de Amor

Lulu Santos

 Lulu Santos
Tom: F
        
(intro)

E |-5--5-5-5-5-5--8--8-8-8-8-8--6--6-6-6-6-6--6--6-6-6-6-6--5--5-5-5-5-5--4--4-4-4-4-4-
B |-6--6-6-6-6-6--8--8-8-8-8-8--6--6-6-6-6-6--6--6-6-6-6-6--6--6-6-6-6-6--6--6-6-6-6-6-
G |-5--5-5-5-5-5--8--8-8-8-8-8--7--7-7-7-7-7--6--6-6-6-6-6--5--5-5-5-5-5--5--5-5-4-4-4-
D |------------------------------------------------------------------------------------
A |------------------------------------------------------------------------------------
E |------------------------------------------------------------------------------------



--3--3-3-3-3-3p1--1-1-1-1-1--0--0-0-0-0-0--1------------|
--1--1-1-1-1-1----1-1-1-1-1--1--1-1-1-1-1--1------------|
--------------------------------------------------------|
--------------------------------------------------------|
--------------------------------------------------------|
--------------------------------------------------------|


    F
Eu gosto tanto de você
      Bb
Que até prefiro esconder

Dm                          C7
Deixo assim ficar sub-entendido

         Gm   Am    Bb    C7    F
Como uma idéia que existe na cabeça
   C7          Gm         Bb     C7   F
E não tem a menor obrigação de acontecer

   F                     Bb
Eu acho tão bonito isso de ser abstrato, baby
Dm                       C7
A beleza é mesmo tão fulgaz
        Gm   Am   Bb    C7   F
É uma idéia que existe na cabeça
   C7          Gm    Am   Bb      C7    F
E não tem a menor pretensão de acontecer

Bb             C
Pode até parecer fraqueza
          F       F7      Bb
Pois que seja fraqueza então
Gm                 Bb
A alegria que me dá
     C7             F   F7
Isso vai sem eu dizer

Bb                 C
Se amanhã não for nada disso
     F       F7       Bb
Caberá só a mim esquecer (eu vou sobreviver)
Gm                       Bb
O que eu ganho e o que eu perco
 C7     F
Ninguém precisa saber

(repete a música toda desde a introdução)

violAO

APRENDA VIOLÃO

violÃO

Receba nossos artigos

*
 

6 aulas de exercícios de violão

13 aulas de violão iniciante

7 aulas de Violão com Beatles

11 aulas de acordes de violão

7 aulas para evoluir no violão

Sobre nós:

A Primeiros Acordes tem como objetivo ensinar você a aprender a tocar no conforto de sua casa, com aulas, cursos, vídeo-aulas, métodos voltados para o aprendizado online.

Contato

Primeiros Acordes

Email: marcos.dupra@globo.com

Horário: 9:00 ás 18:00 hs

Não temos loja física