Aonde quer que eu vá – Paralamas do sucesso (aula de violão completa)

Aonde Quer Que Eu Vá

Os Paralamas do Sucesso

 Os Paralamas do Sucesso

Tom: C
        
D|--0h2-----
A|-------0--
E|----------

Am7             C
    Olhos fechados
D|--0h2-----
A|-------0--
E|----------

Am7               C
    Pra te encontrar
E|----------------
B|–3p1-------1----
G|-----2-0-2------
D|----------------
A|-------------0--
E|----------------

Am7                     C
    Não estou ao seu lado
D|--0h2----
A|------0--
E|---------

Am7               C
    Mas posso sonhar
D|--0-2-3--
A|---------
E|---------

  F                      Dm        C  G/B  Am7
    E aonde quer que eu vá levo você no olhar
D|--0-2-3--
A|---------
E|---------

  F7M                    Dm7                 C   G/B  Am
    Aonde quer que eu vá, aonde quer que vá
G|------0----
D|--0h2------
A|--------0--
E|-----------

Am7                C
    Não sei bem certo
D|--0h2-----
A|-------0--
E|----------

Am7             C
    Se é só ilusão
E|----------------
B|–3p1-------1----
G|-----2-0-2------
D|----------------
A|-------------0--
E|----------------

Am7                  C
    Se é você já perto
Am7            C
    Se é intuição

F                      Dm        C  G/B   Am7
  E aonde quer que eu vá levo você no olhar
D|--0-2-3--
A|---------
E|---------

  F                    Dm                 C   G/B  Am
    Aonde quer que eu vá, aonde quer que vá
A|-0-2---
E|-------

  D          Bm            F#m
    Longe daqui, longe de tudo
          G                D
    Meus sonhos vão te buscar
               Bm               F#m
    Volta pra mim, vem pro meu mundo
        G                 D
    Eu sempre vou te esperar

         Bm      F#m   G  F  E
    Larara, lararara
G|------0----
D|--0h2------
A|--------0--
E|-----------

Am7                 C
    Não sei bem certo
E|----------------
B|–3p1-------1----
G|-----2-0-2------
D|----------------
A|-------------0--
E|----------------

Am7             C
    Se é só ilusão
G|-----0------
D|–0h2---1/2--
A|------------
E|------------

Am7                  C
    Se é você já perto
Am7           C
    Se é intuição

  F                      Dm        C  G/B   Am7
    E aonde quer que eu vá levo você no olhar
  F                    Dm                 C   G/B  Am
    Aonde quer que eu vá, aonde quer que vá

    F        Dm      C   G/B  Am7
    La, larara, larara
    F        Dm      C    G/B                Am7
    La, larara, larara, aonde quer que eu vá
    F        Dm      C   G/B  Am7
    La, larara, larara
    F        Dm      C   G/B   Am7
    La, larara, larara,   lara
    F        Dm      C    G/B                Am7
    La, larara, larara, aonde quer que eu vá
G|------0----
D|--0h2------
A|--------0--
E|-----------

Solo do final:

E|-10-12-10h12p10-12--12-15-13--12-10-12-10-12-10-17b-17~-----|
B|------------------------------------------------------------|
G|------------------------------------------------------------|
D|------------------------------------------------------------|
A|------------------------------------------------------------|
E|------------------------------------------------------------|



E|--17br-15--17s15--------------------------------------------|
B|------------------15-17--17-15h17p15-15-17--15--------------|
G|-----------------------------------------------17-19--17-15-|
D|------------------------------------------------------------|
A|------------------------------------------------------------|
E|------------------------------------------------------------|

violAO

APRENDA VIOLÃO

violÃO

Receba nossos artigos

*
 

6 aulas de exercícios de violão

13 aulas de violão iniciante

7 aulas de Violão com Beatles

11 aulas de acordes de violão

7 aulas para evoluir no violão

Sobre nós:

A Primeiros Acordes tem como objetivo ensinar você a aprender a tocar no conforto de sua casa, com aulas, cursos, vídeo-aulas, métodos voltados para o aprendizado online.

Contato

Primeiros Acordes

Email: marcos.dupra@globo.com

Horário: 9:00 ás 18:00 hs

Não temos loja física