Amigo apaixonado – Victor e Leo (aula de violão completa)

Amigo apaixonado – Victor e Leo (aula de violão completa)

Amigo Apaixonado

Victor e Leo

 Victor e Leo
Tom: G

Intro:
Am9 D4 C
E|--7--------7------5--------5-------3--------3------------------------------------------|
B|--5------5---5----3------3---3-----1------1--------------------------------------------|
G|--5----5-------0-------0-------0---0----0-----0----------------------------------------|
D|--7--7---------------4----------------2------------------------------------------------|
A|--7---------------5----------------3-------------3/5-----------------------------------|
E|--5------------------------------------------------------------------------------------|
D4 Am9 D4 C
E|--5-----5-----------------7-------5--------5-------3--------3-------5------------------|
B|----3-----3-------------5---5-----3------3---3-----1------1-----------3----------------|
G|------0-----0---------5-------0---0----0-------0---0----0-----0------------------------|
D|--------------------7----------------4----------------2--------------------------------|
A|--------------5--7----------------5----------------3------------3/5--------------------|
E|---------------------------------------------------------------------------------------|


G5 D/F#
Pensando bem eu gosto mesmo de você
Em
Pensando bem quero dizer
Am/C D5
Que amo ter te conhecido
G5 D/F#
Nada melhor que eu deixar você saber
Em
Pois é tão triste esconder
Am/C D5
Um sentimento tão bonito
C
Hoje mesmo vou te procurar
G
Falar de mim
C
Sei que nem chegou a imaginar
G D
Que eu pudesse te amar tanto assim

Refrão:
G D/F# Em
Sempre fui um grande amigo seu
C G
Só que não sei mais se assim vai ser
D C
Sempre te contei segredos meus
D G
Estou apaixonado por você
D/F# Em
Esse amor entrou no coração
C G
Agora diz o que é que a gente faz
D C
Pode dizer sim ou dizer não
D G
Ser só seu amigo não dá mais

Solo:
E|-------15-------15-------15------17-------17--------17-------15--------15--------|
B|-10/12----12-12-----12-12-----15----15-15-----15-15----12-12-----12-12----12-----|
G|---------------------------------------------------------------------------------|
D|---------------------------------------------------------------------------------|
A|---------------------------------------------------------------------------------|
E|---------------------------------------------------------------------------------|

E|-15\14-14-14\12-12\10--10\7-7\5--5-5-------5/7-7--5------------------------8/10--|
B|--------------------------------------7-8-----------8-8--8-8-10-10b12-8---8------|
G|-----------------------------------------------------------------------9---------|
D|---------------------------------------------------------------------------------|
A|---------------------------------------------------------------------------------|
E|---------------------------------------------------------------------------------|

E|-3--3--3--3--3--3--3-----7\5--5\3--3---------------------------------------------|
B|-3--3--3--3--3--3--3-------------------------------------------------------------|
G|-0--0--0--0--0--0--0-----7\5--5\4--4---------------------------------------------|
D|-0--0--0--0--0--0--0-------------------------------------------------------------|
A|-2--2--2--2--2--2--2-------------------------------------------------------------|
E|-3--3--3--3--3--3--3-------------------------------------------------------------|


G D/F#
Nada melhor que eu deixar você saber
Em
Pois é tão triste esconder
Am D
Um sentimento tão bonito
C
Hoje mesmo vou te procurar
G
Falar de mim
C
Sei que nem chegou a imaginar
G D
Que eu pudesse te amar tanto assim

(dedilhado + batida)

G D/F# Em
Sempre fui um grande amigo seu
C G
Só que não sei mais se assim vai ser
D C
Sempre te contei segredos meus
D G
Estou apaixonado por você

(dedilhado)
D/F# Em
Esse amor entrou no coração
C G
Agora diz o que é que a gente faz
D C
Pode dizer sim ou dizer não
D G
Ser só seu amigo não dá mais

(repetição)
G D/F# Em
Sempre fui um grande amigo seu
C G
Só que não sei mais se assim vai ser
D C
Sempre te contei segredos meus
D G
Estou apaixonado por você
D/F# Em
Esse amor entrou no coração
C G
Agora diz o que é que a gente faz
D C
Pode dizer sim ou dizer não
D G
Ser só seu amigo não dá mais

Solo do violão na repetição do refrão:
E|----5-----5-----5-----5-----5-----7-----7------------------|
B|------8-----8-----8-----8-----8-----8-----8---8------------|
G|--7-----7-----7-----7-----7-----7-----7-----7--------------|
D|-----------------------------------------------------------|
A|-----------------------------------------------------------|
E|-----------------------------------------------------------|

E|---5------5---------3-----3---------3-----3----------------|
B|-----7------7---7-----5-----5---5-----5-----5---5----------|
G|-7-----7------7---4-----4-----4---5-----5-----5------------|
D|-----------------------------------------------------------|
A|-----------------------------------------------------------|
E|-----------------------------------------------------------|

E|---7-----7----------2-----2----------3-----3----------2-----2---------|
B|-----8-----8---8------3-----3---3------5-----5---5------3-----3---3---|
G|-7-----7-----7----2-----2-----2----5-----5-----5----2-----2-----2-----|
D|----------------------------------------------------------------------|
A|----------------------------------------------------------------------|
E|----------------------------------------------------------------------|

E|---7-----7---------5-----5---------12--12--12--12-----3-----3---------|
B|-----8-----8---8-----7-----7---7---12--12--12--12-------5-----5---5---|
G|-7-----7-----7---7-----7-----7-----12--12--12--12---5-----5-----5-----|
D|----------------------------------------------------------------------|
A|----------------------------------------------------------------------|
E|----------------------------------------------------------------------|

E|---7-----7-------------10-------10------------8-----8-------2---------|
B|-----8-----8----8---------10-------10----10-----8-----8-----3---------|
G|-7-----7-----7------11-------11-------11----9-----9-----9---2---------|
D|------------------------------------------------------------0---------|
A|----------------------------------------------------------------------|
E|----------------------------------------------------------------------|

violAO

APRENDA VIOLÃO

violÃO

Receba nossos artigos

*
 

6 aulas de exercícios de violão

13 aulas de violão iniciante

7 aulas de Violão com Beatles

11 aulas de acordes de violão

7 aulas para evoluir no violão

Sobre nós:

A Primeiros Acordes tem como objetivo ensinar você a aprender a tocar no conforto de sua casa, com aulas, cursos, vídeo-aulas, métodos voltados para o aprendizado online.

Contato

Primeiros Acordes

Email: marcos.dupra@globo.com

Horário: 9:00 ás 18:00 hs

Não temos loja física