Ainda lembro- Marisa Monte (aula de violão)

Ainda lembro- Marisa Monte (aula de violão)

Ainda Lembro

Marisa Monte

 Marisa Monte
Tom: A
(intro solo)

A9
? ? ? ? ? ? ? ?

E|-4-5-4-0--0-0-0-0-------------------------
B|-0-0-0-0--0-0-0-0-------------------------
G|-6-6-6-6--6-6-6-6-------------------------
D|-7-7-7-7--7-7-7-7-------------------------
A|-0-0-0-0--0-0-0-0-------------------------
E|------------------------------------------


E7(4/9)
? ? ? ? ? ? ? ?

E|-7-7-7-7--9-7-7-9-------------------------
B|-7-7-7-7--7-7-7-7-------------------------
G|-7-7-7-7--7-7-7-7-------------------------
D|-7-7-7-7--7-7-7-7-------------------------
A|-7-7-7-7--7-7-7-7-------------------------
E|-0-0-0-0--0-0-0-0-------------------------


? ? ? ? ? ?

E|-9-7-9-7-7-7------------------------------
B|-7-7-7-7-7-7------------------------------
G|-7-7-7-7-7-7------------------------------
D|-7-7-7-7-7-7------------------------------
A|-7-7-7-7-7-7------------------------------
E|-0-0-0-0-0-0------------------------------


(segunda vez)

E7(4/9)
? ? ? ? ? ? ? ? ? ? ? ? ? ?

E|-7-7-7-7-9-7-7-7--7-7-7-7-7-7-------------
B|-7-7-7-7-7-7-7-7--7-7-7-7-7-7-------------
G|-7-7-7-7-7-7-7-7--7-7-7-7-7-7-------------
D|-7-7-7-7-7-7-7-7--7-7-7-7-7-7-------------
A|-7-7-7-7-7-7-7-7--7-7-7-7-7-7-------------
E|-0-0-0-0-0-0-0-0--0-0-0-0-0-0-------------


A9 E7(4/9)
Ainda lembro o que passou
A9 E7(4/9)
Eu você em qualquer lugar
C#m7 F#7(9-)
Dizendo aonde você for eu vou
Bm7(11)
E quando eu perguntei
E7(4/9)
Ouvi você dizer
A9 E7(4/9)
Que eu era tudo o que você sempre quis
A9 E7(4/9)
Mesmo triste eu tava feliz
C#m7 F#7(9-)
E acabei acreditando em ilu_______sões
Bm7(11)
Eu nem penssava em ter
E7(4/9)
Que esquecer você
A9
Agora vem você dizer
G#m7(11) C#7(9-) F#m7 B7
Amor , eu errei com você
Em7(9) Eb7(9) D7M(9) C#m7(9)
E só assim pude entender
F#m7 B7
Que o grande mal que eu fiz
E7(4/9)
Foi a mim mesmo
A9
Vem você dizer
G#m7(11) C#7(9-) F#m7 B7
Amor eu não pude evitar
Em7(9) Eb7(9)
E eu te dizendo
D7M(9) C#m7(9) F#m7
Liga o som uhuuu uhuuu uu
B7 E7(4/9)
E apaga a luz...

(repete tudo)

violAO

APRENDA VIOLÃO

violÃO

Receba nossos artigos

*
 

6 aulas de exercícios de violão

13 aulas de violão iniciante

7 aulas de Violão com Beatles

11 aulas de acordes de violão

7 aulas para evoluir no violão

Sobre nós:

A Primeiros Acordes tem como objetivo ensinar você a aprender a tocar no conforto de sua casa, com aulas, cursos, vídeo-aulas, métodos voltados para o aprendizado online.

Contato

Primeiros Acordes

Email: marcos.dupra@globo.com

Horário: 9:00 ás 18:00 hs

Não temos loja física