Come as you are – Nirvana (aula de violão completa)

Come as you are – Nirvana (aula de violão completa)

Come As You Are

Nirvana

 Nirvana
Tom: D
        
(afinação 1/2 tom abaixo)

(intro 2x) F#m7(11)/E  E

(riff)

E|------------------------------------------
B|------------------------------------------
G|------------------------------------------
D|------------------------------------------
A|-----------0----0------------2---------2--
E|--0--0-1-2----2---2--2--1--0----0---0-----



E|------------------------------------------
B|------------------------------------------
G|------------------------------------------
D|------------------------------------------
A|-----------0----0------------2---------2--
E|-----0-1-2----2---2--2--1--0---0---0------


 F#m7(11)/E E
Come as you are
        F#m7(11)/E E           F#m7(11)/E
As you were, as I want you to be
       E
As a friend
       F#m7(11)/E  E       F#m7(11)/E
As a friend, as an old enemy
           E
Take your time
      F#m7(11)/E         E               F#m7(11)/E
Hurry up, the choice is yours, don't be late
        E
Take a rest
       F#m7(11)/E  E
As a friend, as an old...

     F#m7(11)/E A
Memory (4x)

 F#m7(11)/E     E
Come dowsed in mud
            F#m7(11)/E  E           F#m7(11)/E
Soaked in bleach, as I want you to be
       E
As a trend,
       F#m7(11)/E  E
As a friend, as an old...

   F#m7(11)/E A
Memory (4x)

B9        D           B9           D
  And I swear that I don't have a gun
         B9           D
  No, I don't have a gun
         B9           D
  No, I don't have a gun

(solo)

E|---------------------------
B|---------------------------
G|--6-6-6-6--6--9--11-11/6---
D|---------------------------
A|---------------------------
E|---------------------------



E|---------------------------
B|---------------------------
G|--6-6--9--11-11/6----------
D|---------------------------
A|---------------------------
E|---------------------------


E|----------------------------------------
B|----------------------------------------
G|--6-6--9--11--11--11\13-13-13-11--9-9/6-
D|----------------------------------------
A|----------------------------------------
E|----------------------------------------