Tom: C
        
Intro: C5  G5  A5 (3x)
       D5

   C                 Am
 E|-3--x--3---5--3--X-0----------------| 
 B|-5--x--5---5--5--X-1----------------| 
 G|-5--x--5---5--5--X-2----------------|…

Tom: G
        
(verso)


     Em    G   Em    G
E   |--000--333--000--333-- 
 B   |--000--333--000--333-- 
 G   |--000--444--000--444-- 
 D   |--222--555--222--555-- 
 A   |--222--555--222--555-- 
 E…

Tom: F
        

Intro:
E|-11-11-----------------| 
 B|------11-11------------| 
 G|-----------10-10-12-12-| 
 D|-----------------------| 
 A|-----------------------|…

violAO

APRENDA VIOLÃO

violÃO

Receba nossos artigos

*
 

6 aulas de exercícios de violão

13 aulas de violão iniciante

7 aulas de Violão com Beatles

11 aulas de acordes de violão

7 aulas para evoluir no violão

Sobre nós:

A Primeiros Acordes tem como objetivo ensinar você a aprender a tocar no conforto de sua casa, com aulas, cursos, vídeo-aulas, métodos voltados para o aprendizado online.

Contato

Primeiros Acordes

Email: marcos.dupra@globo.com

Horário: 9:00 ás 18:00 hs

Não temos loja física