O Bêbado e a Equilibrista - João Bosco

Tom: D
        
(intro) Bm7   E4(7/9)   E7(9-/13)   A9
        C#m7/G#   F#m7/C#      F#9-   F#7
        Dm6   G7(9)   G6(11+)   F#m6
        Bm7   E4(7/9)   E7(9-/13)      A9

(parte 1)

   Bm7
E|-----2-5-----2-5-----2-5-----2-5/---------
B|-2-3-----2-3-----2-3-----2-3--------------
G|-2-------2-------2-------2----------------
D|-4-------4-------4-------4----------------
A|-2-------2-------2-------2----------------
E|------------------------------------------



   E4(7/9)         E7(9-/13)
E|/9-------9-------9-------9----------------
B|-7-7---7---7---7-6---6--------------------
G|-7---7-------7---7-7---7------------------
D|-7---------------6------------------------
A|------------------------------------------
E|-0----------------------------------------


(parte 2)

   A9
E|---------7---------------7----------------
B|-----0-------0-------0-------0------------
G|---6---6---6---6---6---6---6---6----------
D|-7---------------7------------------------
A|------------------------------------------
E|------------------------------------------


(parte 3)

  C#m7/G#
E|---------7---------------7----------------
B|-----5-------5-------5-------5------------
G|---6---6---6---6---6---6---6---6----------
D|-6---------------6------------------------
A|------------------------------------------
E|------------------------------------------


(parte 4)

   F#m7/C#         
E|------------------------------------------
B|---------5---------------4----------------
G|-----2-------2-------2-------2------------
D|---2---2---2---2---4---4---4---4----------
A|-4---------------3------------------------
E|------------------------------------------


(parte 5)

   Bm7              F#9-    F#7
E|--------------------------------2---------
B|----------3-------------------2-----------
G|------2-------2-------3-----3-------------
D|---4----4---4---4---5---5-2---------------
A|-2----------------------------------------
E|------------------2-----------------------


(parte 6)

   Dm6             G7(9)
E|------------------------------------------
B|---------0---------------0----------------
G|-----2-------2-------2-------2------------
D|---3---3---3---3---3---3---3---3----------
A|-5----------------------------------------
E|-----------------3------------------------


(parte 7)

    G6(11+)       F#9-
E|------------------------------------------
B|---------2-------------2------------------
G|-----4-------4-------3-----3---3----------
D|---2---2---2---2---5-----4---2------------
A|------------------------------------------
E|-3---------------2------------------------


(parte 8)

   F#m6  Bm7     E4(7/9/13)  E7(9-/13)
E|-----------2-5-9-----------9--------------
B|-----2-2-3-----7-----7-----6---6----------
G|-----2-2-------7--7-----7--7-7---7--------
D|---1---4-------7-----------6--------------
A|-------2----------------------------------
E|-2-------------0--------------------------


(parte 9)

   A9
E|-------7-------7-------7-------7----------
B|-----0-------0-------0-------0------------
G|---6-------6-------6-------6--------------
D|-7-------7-------7-------7----------------
A|------------------------------------------
E\------------------------------------------


(intro solo)

(parte 1)

             A9                  C#m7/G#
E|-----------5-7-9-5h7-5-4h5p4---3/4--------
B|-5h6p5p4h5-------------------7------------
G|------------------------------------------
D|------------------------------------------
A|------------------------------------------
E|------------------------------------------


(parte 2)

                 F#m7/C#       Bm7     F#9-
E|-5-7-5-4h5p4--------4h5-----------9/10----
B|-------------7-5/7------7-9-10/12------11-
G|------------------------------------------
D|------------------------------------------
A|------------------------------------------
E|------------------------------------------


(parte 3)

   F#7  Dm6         G7(9)                G6(11+)
E|----9-10-10-12-12/13-12-10-9h10p9----8/9--
B|-12-------------------------------12------
G|------------------------------------------
D|------------------------------------------
A|------------------------------------------
E|------------------------------------------


(parte 4)

      F#9-      F#m6 Bm7 E4(7/9) E7(9-/13)
E|-10p9-9h10p9------------------------------
B|-------------12\11-12------7--------------
G|--------------------------11--------------
D|------------------------------------------
A|------------------------------------------
E|------------------------------------------



   A9
E|------------------------------------------
B|-10---------------------------------------
G|------------------------------------------
D|------------------------------------------
A|------------------------------------------
E|------------------------------------------


(primeira estrofe)
  A9                      C#m7/G#
Caía a tarde feito um viaduto
                      F#m7
E um bêbado trajando luto
 G6(11+)     F#7(13-)   Bm7(9)   C4+(7/9)
Me      lembrou     Carlitos

(parte 1)

   A9
E|-------7-------7-------7-------7----------
B|-----0-------0-------0-------0------------
G|---6-------6-------6-------6--------------
D|-7-------7-------7-------7----------------
A|------------------------------------------
E|------------------------------------------  (2x)


(parte 2)

   C#m7/G#
E|-------7-------7-------7-------7----------
B|-----5-------5-------5-------5------------
G|---6-------6-------6-------6--------------
D|-6-------6-------6-------6----------------
A|------------------------------------------
E|------------------------------------------  (2x)


(parte 3)

   F#m7
E|------------------------------------------
B|-----2-----2-------2-------2--------------
G|-2-------2-----2-------2------------------
D|-2-------2-----2-------2------------------
A|------------------------------------------
E|-2-------2-------5-------4----------------


(parte 4)

   G6(11+)       F#7(13-)
E|------------------------------------------
B|-2---2-----2---3---3---3-----3------------
G|-4---4-----4---3---3---3-----3------------
D|-2---2-----2---2---2---2-----2------------
A|------------------------------------------
E|-3-------3-------2-------2----------------


(parte 5)

   Bm7(9)          C4+(7/9)
E|-----------------2------------------------
B|-2---2-----2-----3------------------------
G|-2---2-----2-----3------------------------
D|-0---0-----0------------------------------
A|-2-------2-------3------------------------
E|------------------------------------------


(segunda estrofe)
   D7M  C#m7  Bm7                            D7M  C#m7  Bm7
A lua             tal qual a dona  de um bordel
          F7M(11+)          E7
Pedia a cada     estrela fria
             E4(7)  E7/G#   C#m7(9) C7(9) Bm7(9/11) Bb7(9/11+)
Um brilho de a_____lu_____guel

(parte 1)

(1ª vez)

  D7M           C#m7
E|-5-------------4--------------------------
B|-7---7-----7---5---5---5-----5------------
G|-6---6-----6---4---4---4-----4------------
D|-----7-----7-------6---6-----6------------
A|-5-------5-------4-------4----------------
E|------------------------------------------


(parte 2)

  Bm7
E|-2----------------------------------------
B|-3---3-----3---3-3---3-----3---3----------
G|-2---2-----2---2-2---2-----2---2----------
D|-----4-----4---4-4---4-----4---4----------
A|-2-------2-------2-------2----------------
E|------------------------------------------


(parte 3 = parte 1)

(2ª vez)    (repete toda essa parte 2x)
(parte 4)

  Bm7              F7M(11+)
E|-2------------|----------------------------
B|-3---3-----3--|---0---------3---3----------
G|-2---2-----2--|---2---------2---2----------
D|-----4-----4--|---2---------4---4----------
A|-2-------2----|-----------2----------------
E|--------------|---1------------------------


(parte 5)

   E7
E|-----0-----0-------0---------0------------
B|-3-------3-----3-------3------------------
G|-1-------1-----1-------1------------------
D|-2-------2-----2-------2------------------
A|------------------------------------------
E|-0-------0-------0-------0----------------


(parte 6)

   E4(7)           E7/G#
E|-0----------------------------------------
B|-0---0-----0---3-----3-----3--------------
G|-2---2-----2---4-----4-----4--------------
D|-0---0-----0---2-----2-----2--------------
A|-2----------------------------------------
E--0-------0-------4-------4----------------


(parte 7)

   C#m7(9) C7(9)   Bm7(9)  Bb7(9)
E|-----0-------0-------0-------0------------
B|-4-------3-------2-------1----------------
G|-4-------3-------2-------1----------------
D|-2-------2-------0-------0----------------
A|-4-------3-------2-------1----------------
E|------------------------------------------


(terceira estrofe)
   A9                          C#m7/G#
E nuvens lá no mata-borrão do céu
                       G6(11+)  F#7
Chupavam manchas tortura_______das,
 G6(11+)   F#7(13-)  Bm7(9/11)
Que       su________foco!

(parte 1)

   A9
E|-----7-----7-------7---------7------------
B|-0-------0-----0-------0------------------
G|-6-------6-----6-------6------------------
D|-7-------7-------7-------7----------------
A|------------------------------------------
E|------------------------------------------ (2x)


(parte 2)

   C#m7/G#
E|-----7-----7-------7---------7------------
B|-5-------5-----5-------5------------------
G|-6-------6-----6-------6------------------
D|-6-------6-------6-------6----------------
A|------------------------------------------
E|------------------------------------------


(parte 3)

  G6(11+)       F#7
E|------------------------------------------
B|-2---2-----2---2---2---2-----2------------
G|-4---4-----4---3---3---3-----3------------
D|-2---2-----2---2---2---2-----2------------
A|------------------------------------------
E|-3-------3-------2-------2----------------


(parte 4)

   G6(11+)       F#7(13-)
E|---------------2-------2------------------
B|-2---2-----2---3---3---3-----3------------
G|-4---4-----4---3---3---3-----3------------
D|-2---2-----2-------2---------2------------
A|------------------------------------------
E|-3-------3-------2-------2----------------


(parte 5)

   Bm7(9)
E|------------------------------------------
B|-2---2-----2---2---2---2-----2------------
G|-2---2-----2---2---2---2-----2------------
D|-0---0-----0---0---0---0-----0------------
A|-2-------2-------2-------2----------------
E|------------------------------------------


(quarta estrofe)
 Dm6(9)                          
Louco, um bêbado com chapéu-coco
A/C#  A7M/C#  C7(9)    F#7(13-)  Bm7(9)
Fazia   irreve_____rências   mil
           Bm7    E4(7/9)  E7(9-/13)  A9
Pra noite do    Bra_______________sil,
         E7(9-/13)
Meu  Brasil!

(parte 1)

   Dm6(9)
E|-----0-----0-------0---------0------------
B|-0-------0-----0-------0------------------
G|-2-------2-----2-------2------------------
D|-3-------3-----3-------3------------------
A|-5-------5-------5-------5----------------
E|------------------------------------------ (2x)


(parte 2)

               
E|------------------------------------------
B|-4---4-----4---7---7---7-----7------------
G|-5---5-----5---8---8---8-----8------------
D|-4---4-----4---7---7---7-----7------------
A|------------------------------------------
E|-5-------5-------8-------8----------------


(parte 3)

   A/C#    A7M/C#  C7(9)   F#7(13-)
E|-------------------------2----------------
B|-10------9-------3-------3----------------
G|-9-------9-------3-------3----------------
D|-7-------7-------2-------2----------------
A|-----------------3------------------------
E|-9-------9---------------2----------------


(parte 4)

   Bm7(9)
E|------------------------------------------
B|-2---2-----2---2---2---2-----2------------
G|-2---2-----2---2---2---2-----2------------
D|-0---0-----0---0---0---0-----0------------
A|-2-------2-------2-------2----------------
E|------------------------------------------


(parte 5)

   Bm7     E4(7/9)   E7(9-/13) A9     E7(9-/13)
E|-----2-5/9---------9---------7------9-----
B|-2-3-----7---------6---------0------6-----
G|-2-------7---------7---------6------7-----
D|-4-------7---------6---------7------6-----
A|-2---------------------------0------------
E|---------0--------------------------0-----


     A9                                C#m7/G#
Que sonha  com a volta do irmão do Henfil
                        F#m7
Com tanta gente que partiu
     G6(11+)  F#7(13-)  Bm7(9)  C4+(7/9)
Num rabo     de     foguete

   D7M  C#m7  Bm7                       D7M  C#m7  Bm7
Chora           a nossa pátria  mãe gentil
          F7M(11+)      E7
Choram Marias     e Clarices
         E4(7)  E7/G#   C#m7(9) C7(9) Bm7(9/11) Bb7(9/11+)
No solo do    Bra______sil

     A9                       C#m7/G#
Mas sei que uma dor assim pungente
                     G6(11+)  F#7
Não há de ser inutilmen______te,
G6(11+)     F#7(13-)  Bm7(9/11)
A        espe________rança

 Dm6(9)                          
Dança na corda bamba de sombrinha
A/C#     A7M/C#  C7(9)  F#7(13-) Bm7(9)
E em cada    passo  dessa    linha
         Bm7 E4(7/9) E7(9-/13)  A7(9-)
Pode se ma_chu______________car

Dm6(9)                        
Azar, a esperança equilibrista
A/C#  A7M/C#    C7(9)  F#7(13-)  Bm7(9)
Sabe que o show de todo    artista
            Bm7 E4(7/9) E7(9-/13) A9   A7M(6/11+)
Tem que conti__nu_________________ar

(repetição quarta estrofe)

(parte 1)

   Dm6(9)
E|-----0-----0-------0---------0------------
B|-0-------0-----0-------0------------------
G|-2-------2-----2-------2------------------
D|-3-------3-----3-------3------------------
A|-5-------5-------5-------5----------------
E|------------------------------------------ (2x)


(parte 2)

               
E|------------------------------------------
B|-4---4-----4---7---7---7-----7------------
G|-5---5-----5---8---8---8-----8------------
D|-4---4-----4---7---7---7-----7------------
A|------------------------------------------
E|-5-------5-------8-------8----------------


(parte 3)

   A/C#    A7M/C#  C7(9)   F#7(13-)
E|-------------------------2----------------
B|-10------9-------3-------3----------------
G|-9-------9-------3-------3----------------
D|-7-------7-------2-------2----------------
A|-----------------3------------------------
E|-9-------9---------------2----------------


(parte 4)

   Bm7(9)
E|------------------------------------------
B|-2---2-----2---2---2---2-----2------------
G|-2---2-----2---2---2---2-----2------------
D|-0---0-----0---0---0---0-----0------------
A|-2-------2-------2-------2----------------
E|------------------------------------------


(parte 5)

   Bm7             E4(7/9) E7(9-/13)
E|------------------------------------------
B|-2---3-----3---3-----7-----6---6----------
G|-2---2-----2---2-----7-----7---7----------
D|-4---4-----4---4-----7-----6---6----------
A|-2-------2--------------------------------
E|-----------------0-------0----------------



   A7(9-)
E|-----0-----0-------0---------0------------
B|-2-------2-----2-------2------------------
G|-3-------3-----3-------3------------------
D|-5-------5-----5-------5------------------
A|-0-------0-------0-------0----------------
E|------------------------------------------


(final)

   A9                             A7M(6/11+)
E|---------7---------------7----------4-----
B|-----0-------0-------0-------0------4-----
G|---6---6---6---6---6---6---6---6----6-----
D|-7---------------7------------------4-----
A|------------------------------------0-----
E|------------------------------------------

O Bêbado e a Equilibrista - João Bosco

  Tom: D
                 
(intro) Bm7   E4(7/9)   E7(9-/13)   A9
          C#m7/G#   F#m7/C#      F#9-   F#7
          Dm6   G7(9)   G6(11+)   F#m6
          Bm7   E4(7/9)   E7(9-/13)      A9
   
  (parte 1)
  
     Bm7
  E|-----2-5-----2-5-----2-5-----2-5/---------
  B|-2-3-----2-3-----2-3-----2-3--------------
  G|-2-------2-------2-------2----------------
  D|-4-------4-------4-------4----------------
  A|-2-------2-------2-------2----------------
  E|------------------------------------------
  
   
  
     E4(7/9)         E7(9-/13)
  E|/9-------9-------9-------9----------------
  B|-7-7---7---7---7-6---6--------------------
  G|-7---7-------7---7-7---7------------------
  D|-7---------------6------------------------
  A|------------------------------------------
  E|-0----------------------------------------
  
   
  (parte 2)
  
     A9
  E|---------7---------------7----------------
  B|-----0-------0-------0-------0------------
  G|---6---6---6---6---6---6---6---6----------
  D|-7---------------7------------------------
  A|------------------------------------------
  E|------------------------------------------
  
   
  (parte 3)
  
    C#m7/G#
  E|---------7---------------7----------------
  B|-----5-------5-------5-------5------------
  G|---6---6---6---6---6---6---6---6----------
  D|-6---------------6------------------------
  A|------------------------------------------
  E|------------------------------------------
  
   
  (parte 4)
  
     F#m7/C#         
  E|------------------------------------------
  B|---------5---------------4----------------
  G|-----2-------2-------2-------2------------
  D|---2---2---2---2---4---4---4---4----------
  A|-4---------------3------------------------
  E|------------------------------------------
  
   
  (parte 5)
  
     Bm7              F#9-    F#7
  E|--------------------------------2---------
  B|----------3-------------------2-----------
  G|------2-------2-------3-----3-------------
  D|---4----4---4---4---5---5-2---------------
  A|-2----------------------------------------
  E|------------------2-----------------------
  
   
  (parte 6)
  
     Dm6             G7(9)
  E|------------------------------------------
  B|---------0---------------0----------------
  G|-----2-------2-------2-------2------------
  D|---3---3---3---3---3---3---3---3----------
  A|-5----------------------------------------
  E|-----------------3------------------------
  
   
  (parte 7)
  
      G6(11+)       F#9-
  E|------------------------------------------
  B|---------2-------------2------------------
  G|-----4-------4-------3-----3---3----------
  D|---2---2---2---2---5-----4---2------------
  A|------------------------------------------
  E|-3---------------2------------------------
  
   
  (parte 8)
  
     F#m6  Bm7     E4(7/9/13)  E7(9-/13)
  E|-----------2-5-9-----------9--------------
  B|-----2-2-3-----7-----7-----6---6----------
  G|-----2-2-------7--7-----7--7-7---7--------
  D|---1---4-------7-----------6--------------
  A|-------2----------------------------------
  E|-2-------------0--------------------------
  
   
  (parte 9)
  
     A9
  E|-------7-------7-------7-------7----------
  B|-----0-------0-------0-------0------------
  G|---6-------6-------6-------6--------------
  D|-7-------7-------7-------7----------------
  A|------------------------------------------
  E\------------------------------------------
  
   
  (intro solo)
   
  (parte 1)
  
               A9                  C#m7/G#
  E|-----------5-7-9-5h7-5-4h5p4---3/4--------
  B|-5h6p5p4h5-------------------7------------
  G|------------------------------------------
  D|------------------------------------------
  A|------------------------------------------
  E|------------------------------------------
  
   
  (parte 2)
  
                   F#m7/C#       Bm7     F#9-
  E|-5-7-5-4h5p4--------4h5-----------9/10----
  B|-------------7-5/7------7-9-10/12------11-
  G|------------------------------------------
  D|------------------------------------------
  A|------------------------------------------
  E|------------------------------------------
  
   
  (parte 3)
  
     F#7  Dm6         G7(9)                G6(11+)
  E|----9-10-10-12-12/13-12-10-9h10p9----8/9--
  B|-12-------------------------------12------
  G|------------------------------------------
  D|------------------------------------------
  A|------------------------------------------
  E|------------------------------------------
  
   
  (parte 4)
  
        F#9-      F#m6 Bm7 E4(7/9) E7(9-/13)
  E|-10p9-9h10p9------------------------------
  B|-------------12\11-12------7--------------
  G|--------------------------11--------------
  D|------------------------------------------
  A|------------------------------------------
  E|------------------------------------------
  
   
  
     A9
  E|------------------------------------------
  B|-10---------------------------------------
  G|------------------------------------------
  D|------------------------------------------
  A|------------------------------------------
  E|------------------------------------------
  
   
  (primeira estrofe)
    A9                      C#m7/G#
  Caía a tarde feito um viaduto
                        F#m7
  E um bêbado trajando luto
   G6(11+)     F#7(13-)   Bm7(9)   C4+(7/9)
  Me      lembrou     Carlitos
   
  (parte 1)
  
     A9
  E|-------7-------7-------7-------7----------
  B|-----0-------0-------0-------0------------
  G|---6-------6-------6-------6--------------
  D|-7-------7-------7-------7----------------
  A|------------------------------------------
  E|------------------------------------------  (2x)
  
   
  (parte 2)
  
     C#m7/G#
  E|-------7-------7-------7-------7----------
  B|-----5-------5-------5-------5------------
  G|---6-------6-------6-------6--------------
  D|-6-------6-------6-------6----------------
  A|------------------------------------------
  E|------------------------------------------  (2x)
  
   
  (parte 3)
  
     F#m7
  E|------------------------------------------
  B|-----2-----2-------2-------2--------------
  G|-2-------2-----2-------2------------------
  D|-2-------2-----2-------2------------------
  A|------------------------------------------
  E|-2-------2-------5-------4----------------
  
   
  (parte 4)
  
     G6(11+)       F#7(13-)
  E|------------------------------------------
  B|-2---2-----2---3---3---3-----3------------
  G|-4---4-----4---3---3---3-----3------------
  D|-2---2-----2---2---2---2-----2------------
  A|------------------------------------------
  E|-3-------3-------2-------2----------------
  
   
  (parte 5)
  
     Bm7(9)          C4+(7/9)
  E|-----------------2------------------------
  B|-2---2-----2-----3------------------------
  G|-2---2-----2-----3------------------------
  D|-0---0-----0------------------------------
  A|-2-------2-------3------------------------
  E|------------------------------------------
  
   
  (segunda estrofe)
     D7M  C#m7  Bm7                            D7M  C#m7  Bm7
  A lua             tal qual a dona  de um bordel
            F7M(11+)          E7
  Pedia a cada     estrela fria
               E4(7)  E7/G#   C#m7(9) C7(9) Bm7(9/11) Bb7(9/11+)
  Um brilho de a_____lu_____guel
   
  (parte 1)
   
  (1ª vez)
  
    D7M           C#m7
  E|-5-------------4--------------------------
  B|-7---7-----7---5---5---5-----5------------
  G|-6---6-----6---4---4---4-----4------------
  D|-----7-----7-------6---6-----6------------
  A|-5-------5-------4-------4----------------
  E|------------------------------------------
  
   
  (parte 2)
  
    Bm7
  E|-2----------------------------------------
  B|-3---3-----3---3-3---3-----3---3----------
  G|-2---2-----2---2-2---2-----2---2----------
  D|-----4-----4---4-4---4-----4---4----------
  A|-2-------2-------2-------2----------------
  E|------------------------------------------
  
   
  (parte 3 = parte 1)
   
  (2ª vez)    (repete toda essa parte 2x)
  (parte 4)
  
    Bm7              F7M(11+)
  E|-2------------|----------------------------
  B|-3---3-----3--|---0---------3---3----------
  G|-2---2-----2--|---2---------2---2----------
  D|-----4-----4--|---2---------4---4----------
  A|-2-------2----|-----------2----------------
  E|--------------|---1------------------------
  
   
  (parte 5)
  
     E7
  E|-----0-----0-------0---------0------------
  B|-3-------3-----3-------3------------------
  G|-1-------1-----1-------1------------------
  D|-2-------2-----2-------2------------------
  A|------------------------------------------
  E|-0-------0-------0-------0----------------
  
   
  (parte 6)
  
     E4(7)           E7/G#
  E|-0----------------------------------------
  B|-0---0-----0---3-----3-----3--------------
  G|-2---2-----2---4-----4-----4--------------
  D|-0---0-----0---2-----2-----2--------------
  A|-2----------------------------------------
  E--0-------0-------4-------4----------------
  
   
  (parte 7)
  
     C#m7(9) C7(9)   Bm7(9)  Bb7(9)
  E|-----0-------0-------0-------0------------
  B|-4-------3-------2-------1----------------
  G|-4-------3-------2-------1----------------
  D|-2-------2-------0-------0----------------
  A|-4-------3-------2-------1----------------
  E|------------------------------------------
  
   
  (terceira estrofe)
     A9                          C#m7/G#
  E nuvens lá no mata-borrão do céu
                         G6(11+)  F#7
  Chupavam manchas tortura_______das,
   G6(11+)   F#7(13-)  Bm7(9/11)
  Que       su________foco!
   
  (parte 1)
  
     A9
  E|-----7-----7-------7---------7------------
  B|-0-------0-----0-------0------------------
  G|-6-------6-----6-------6------------------
  D|-7-------7-------7-------7----------------
  A|------------------------------------------
  E|------------------------------------------ (2x)
  
   
  (parte 2)
  
     C#m7/G#
  E|-----7-----7-------7---------7------------
  B|-5-------5-----5-------5------------------
  G|-6-------6-----6-------6------------------
  D|-6-------6-------6-------6----------------
  A|------------------------------------------
  E|------------------------------------------
  
   
  (parte 3)
  
    G6(11+)       F#7
  E|------------------------------------------
  B|-2---2-----2---2---2---2-----2------------
  G|-4---4-----4---3---3---3-----3------------
  D|-2---2-----2---2---2---2-----2------------
  A|------------------------------------------
  E|-3-------3-------2-------2----------------
  
   
  (parte 4)
  
     G6(11+)       F#7(13-)
  E|---------------2-------2------------------
  B|-2---2-----2---3---3---3-----3------------
  G|-4---4-----4---3---3---3-----3------------
  D|-2---2-----2-------2---------2------------
  A|------------------------------------------
  E|-3-------3-------2-------2----------------
  
   
  (parte 5)
  
     Bm7(9)
  E|------------------------------------------
  B|-2---2-----2---2---2---2-----2------------
  G|-2---2-----2---2---2---2-----2------------
  D|-0---0-----0---0---0---0-----0------------
  A|-2-------2-------2-------2----------------
  E|------------------------------------------
  
   
  (quarta estrofe)
   Dm6(9)                          
  Louco, um bêbado com chapéu-coco
  A/C#  A7M/C#  C7(9)    F#7(13-)  Bm7(9)
  Fazia   irreve_____rências   mil
             Bm7    E4(7/9)  E7(9-/13)  A9
  Pra noite do    Bra_______________sil,
           E7(9-/13)
  Meu  Brasil!
   
  (parte 1)
  
     Dm6(9)
  E|-----0-----0-------0---------0------------
  B|-0-------0-----0-------0------------------
  G|-2-------2-----2-------2------------------
  D|-3-------3-----3-------3------------------
  A|-5-------5-------5-------5----------------
  E|------------------------------------------ (2x)
  
   
  (parte 2)
  
                 
  E|------------------------------------------
  B|-4---4-----4---7---7---7-----7------------
  G|-5---5-----5---8---8---8-----8------------
  D|-4---4-----4---7---7---7-----7------------
  A|------------------------------------------
  E|-5-------5-------8-------8----------------
  
   
  (parte 3)
  
     A/C#    A7M/C#  C7(9)   F#7(13-)
  E|-------------------------2----------------
  B|-10------9-------3-------3----------------
  G|-9-------9-------3-------3----------------
  D|-7-------7-------2-------2----------------
  A|-----------------3------------------------
  E|-9-------9---------------2----------------
  
   
  (parte 4)
  
     Bm7(9)
  E|------------------------------------------
  B|-2---2-----2---2---2---2-----2------------
  G|-2---2-----2---2---2---2-----2------------
  D|-0---0-----0---0---0---0-----0------------
  A|-2-------2-------2-------2----------------
  E|------------------------------------------
  
   
  (parte 5)
  
     Bm7     E4(7/9)   E7(9-/13) A9     E7(9-/13)
  E|-----2-5/9---------9---------7------9-----
  B|-2-3-----7---------6---------0------6-----
  G|-2-------7---------7---------6------7-----
  D|-4-------7---------6---------7------6-----
  A|-2---------------------------0------------
  E|---------0--------------------------0-----
  
   
       A9                                C#m7/G#
  Que sonha  com a volta do irmão do Henfil
                          F#m7
  Com tanta gente que partiu
       G6(11+)  F#7(13-)  Bm7(9)  C4+(7/9)
  Num rabo     de     foguete
   
     D7M  C#m7  Bm7                       D7M  C#m7  Bm7
  Chora           a nossa pátria  mãe gentil
            F7M(11+)      E7
  Choram Marias     e Clarices
           E4(7)  E7/G#   C#m7(9) C7(9) Bm7(9/11) Bb7(9/11+)
  No solo do    Bra______sil
   
       A9                       C#m7/G#
  Mas sei que uma dor assim pungente
                       G6(11+)  F#7
  Não há de ser inutilmen______te,
  G6(11+)     F#7(13-)  Bm7(9/11)
  A        espe________rança
   
   Dm6(9)                          
  Dança na corda bamba de sombrinha
  A/C#     A7M/C#  C7(9)  F#7(13-) Bm7(9)
  E em cada    passo  dessa    linha
           Bm7 E4(7/9) E7(9-/13)  A7(9-)
  Pode se ma_chu______________car
   
  Dm6(9)                        
  Azar, a esperança equilibrista
  A/C#  A7M/C#    C7(9)  F#7(13-)  Bm7(9)
  Sabe que o show de todo    artista
              Bm7 E4(7/9) E7(9-/13) A9   A7M(6/11+)
  Tem que conti__nu_________________ar
   
  (repetição quarta estrofe)
   
  (parte 1)
  
     Dm6(9)
  E|-----0-----0-------0---------0------------
  B|-0-------0-----0-------0------------------
  G|-2-------2-----2-------2------------------
  D|-3-------3-----3-------3------------------
  A|-5-------5-------5-------5----------------
  E|------------------------------------------ (2x)
  
   
  (parte 2)
  
                 
  E|------------------------------------------
  B|-4---4-----4---7---7---7-----7------------
  G|-5---5-----5---8---8---8-----8------------
  D|-4---4-----4---7---7---7-----7------------
  A|------------------------------------------
  E|-5-------5-------8-------8----------------
  
   
  (parte 3)
  
     A/C#    A7M/C#  C7(9)   F#7(13-)
  E|-------------------------2----------------
  B|-10------9-------3-------3----------------
  G|-9-------9-------3-------3----------------
  D|-7-------7-------2-------2----------------
  A|-----------------3------------------------
  E|-9-------9---------------2----------------
  
   
  (parte 4)
  
     Bm7(9)
  E|------------------------------------------
  B|-2---2-----2---2---2---2-----2------------
  G|-2---2-----2---2---2---2-----2------------
  D|-0---0-----0---0---0---0-----0------------
  A|-2-------2-------2-------2----------------
  E|------------------------------------------
  
   
  (parte 5)
  
     Bm7             E4(7/9) E7(9-/13)
  E|------------------------------------------
  B|-2---3-----3---3-----7-----6---6----------
  G|-2---2-----2---2-----7-----7---7----------
  D|-4---4-----4---4-----7-----6---6----------
  A|-2-------2--------------------------------
  E|-----------------0-------0----------------
  
   
  
     A7(9-)
  E|-----0-----0-------0---------0------------
  B|-2-------2-----2-------2------------------
  G|-3-------3-----3-------3------------------
  D|-5-------5-----5-------5------------------
  A|-0-------0-------0-------0----------------
  E|------------------------------------------
  
   
  (final)
   
     A9                             A7M(6/11+)
  E|---------7---------------7----------4-----
  B|-----0-------0-------0-------0------4-----
  G|---6---6---6---6---6---6---6---6----6-----
  D|-7---------------7------------------4-----
  A|------------------------------------0-----
  E|------------------------------------------

O Bêbado e a Equilibrista - João Bosco

violAO

APRENDA VIOLÃO

violÃO

Receba nossos artigos

*
 

6 aulas de exercícios de violão

13 aulas de violão iniciante

7 aulas de Violão com Beatles

11 aulas de acordes de violão

7 aulas para evoluir no violão

Sobre nós:

A Primeiros Acordes tem como objetivo ensinar você a aprender a tocar no conforto de sua casa, com aulas, cursos, vídeo-aulas, métodos voltados para o aprendizado online.

Contato

Primeiros Acordes

Email: marcos.dupra@globo.com

Horário: 9:00 ás 18:00 hs

Não temos loja física